Him - Buried Alive By Love Chords & Tabs

 

Buried Alive By Love Chords & Tabs

Him Chords & Tabs

Version: 4 Type: Tab

Buried Alive By Love Tab

E|------------------------------------12-12-12-12-12-----|
B|-12-12-12-12-10--10-------10-12-10---------------------|
G|---------------12--12-9-12--------12-------------------|
D|-------------------------------------------------------|
A|-------------------------------------------------------|
E|-------------------------------------------------------|
[ Tab from: http://www.guitartabs.cc/tabs/h/him/buried_alive_by_love_tab_ver_4.html ]
E|-12-12-12-12-15-12-10--10--10--12-12-12-10---------|
B|---------------------12--12--12-----------12-10----|
G|------------------------------------------------12-|
D|---------------------------------------------------|
A|---------------------------------------------------|
E|---------------------------------------------------|

E|---------------------------------------------------|
B|-10-----12-----9-12-9------12-12-12-12-12-12-12-12-|
G|---12-9------12-------12---12-12-12-12-12-12-12-12-|play 12 as many times
D|---------------------------------------------------|
A|---------------------------------------------------|
E|---------------------------------------------------|

E|---------------------------------------------------|
B|-12-12-12----9-------------------------------------|
G|-12-12-12-12---12----------------------------------|
D|---------------------------------------------------|
A|---------------------------------------------------|
E|---------------------------------------------------|