Him - Buried Alive By Love Chords & Tabs

 

Buried Alive By Love Chords & Tabs

Him Chords & Tabs

Version: 3 Type: Tab 0 ratings
1 star 2 stars 3 stars 4 stars 5 stars
comments

Buried Alive By Love Tab

SONG: BURIED ALIVE BY LOVE
BAND: HIM

This is an amazing song and is the opener to the most recent album LOVE METAL. Linde is
an underestimated guitarist with the best style ever!!!! I haven't seen this solo tabbed
before (probably as it isn't that easy to hear) so I decided to do it, there are some
great tabs for the rest of the song though. I think a few places in this tab are a bit
sketchy but it sound pretty much right to me. Please send any corrections to buddings@lycos.co.uk 

E|------------------------------------12-12-12-12-12-|
B|-12-12-12-10---10-------10-12-10-------------------|
G|-------------12--12-9-12--------12-----------------|
D|---------------------------------------------------|
A|---------------------------------------------------|
E|---------------------------------------------------|
[ Tab from: http://www.guitartabs.cc/tabs/h/him/buried_alive_by_love_tab_ver_3.html ]
E|-12-12-12-12-15-12-10--10--10--12-12-12-10---------|
B|---------------------12--12--12-----------12-10----|
G|------------------------------------------------12-|
D|---------------------------------------------------|
A|---------------------------------------------------|
E|---------------------------------------------------|

E|---------------------------------------------------|
B|-10-------12-12-12-12-10--10-12-12-12-12--12-12-12-|
G|---12-9-9---------------12---12-12-12-12--12-12-12-|
D|---------------------------------------------------|
A|---------------------------------------------------|
E|---------------------------------------------------|

E|---------------------------------------------------|
B|-12-12-12-10--10-----------------------------------|
G|-12---------12--9----------------------------------|
D|---------------------------------------------------|
A|---------------------------------------------------|
E|---------------------------------------------------|
Comments