Him - Beyond Redemption Chords & Tabs

 

Beyond Redemption Chords & Tabs

Him Chords & Tabs

Version: 4 Type: Tab 0 ratings
1 star 2 stars 3 stars 4 stars 5 stars
comments

Beyond Redemption Tab

   
Normal tuning
3> = bend half step
3>> = bend full step
3>4< = bend from three to four back to three
/ = slide up
\ = slide down
~ = tremolo
pm = palm mute
hld = hold

intro: two guitar parts.
Part 1:
distortion
e--------------------------------|
b--------------------------------|
g-----------------------3--------|
d-------3~-----------------3>4<3-|
a3-5-3------------3-5-3----------|
e--------------------------------|

e----------------------------------3-|
b----------------------------------4-|
g----------------------------------5-|
d-------3~-------------3-5---------5-|
a3-5-3-----------3-5-3------/6-5~--3-|
e----------------------------------3-|

Part 2:
distortion
e---------------------------------|
b---------------------------------|
g---------------------------------|
d------------------------66668888-| <=  this might look
a33333333666666668888888866668888 <=  like it sounds bad,
e333333336666666688888888-------- <=  but it doesn't

e---------------------------------3-|
b---------------------------------4-|
g---------------------------------5-|
d------------------------66668888-5-|
a33333333666666668888888866668888-3
e333333336666666688888888---------3

Verse riff:

e----------------------------------------------------|
b----------------------------------------------------|
g----------------------------------------------------|
d----------------------------------------------------|
a---------3~----------6\3~-----------3~--------------|
e4--6-3-6------4--6-3-------4--6-3-6-----1---3-4~-6~-|

e----------------------------------------------------|
b----------------------------------------------------|
g----------------------------------------------------|
d----------------------------------------------------|
a---------3~----------6\3~-----------3~--------------|
e4--6-3-6------4--6-3-------4--6-3-6-----1---3-4~-6~-|

end fill

e----------------|
b----------------|
g----------------|
d----------------|
a------6666/8888-|
e1~--3-4444/6666-|

Chorus:

e----------------------------------------------------------|
b----------------------------------------------------------|
g----------------------------------------------------------|
d------------------------------------------------------888-|
a3-3-56666/8888--3-3-56666/8888--33-----5----6-/----888666-|
e3-3-34444/6666--3-3-34444/6666--33-----3----4-/000-666666-|
                                 hld---| hld|   pm-|

e----------------------------------------------------------|
b----------------------------------------------------------|
g----------------------------------------------------------|
d------------------------------------------------------888-|
a3-3-56666/8888--3-3-56666/8888--33-----5----6-/----888666-|
e3-3-34444/6666--3-3-34444/6666--33-----3----4-/000-666666-|
                                 hld---| hld|   pm-|

Verse riff:


e----------------------------------------------------|
b----------------------------------------------------|
g----------------------------------------------------|
d----------------------------------------------------|
a---------3~----------6\3~-----------3~--------------|
e4--6-3-6------4--6-3-------4--6-3-6-----1---3-4~-6~-|

e----------------------------------------------------|
b----------------------------------------------------|
g----------------------------------------------------|
d----------------------------------------------------|
a---------3~----------6\3~-----------3~--------------|
e4--6-3-6------4--6-3-------4--6-3-6-----1---3-4~-6~-|

end fill

e----------------|
b----------------|
g----------------|
d----------------|
a------6666/8888-|
e1~--3-4444/6666-|

Chorus:
[ Tab from: http://www.guitartabs.cc/tabs/h/him/beyond_redemption_tab_ver_4.html ]
e----------------------------------------------------------|
b----------------------------------------------------------|
g----------------------------------------------------------|
d------------------------------------------------------888-|
a3-3-56666/8888--3-3-56666/8888--33-----5----6-/----888666-|
e3-3-34444/6666--3-3-34444/6666--33-----3----4-/000-666666-|
                                 hld---| hld|   pm-|

e----------------------------------------------------------|
b----------------------------------------------------------|
g----------------------------------------------------------|
d------------------------------------------------------888-|
a3-3-56666/8888--3-3-56666/8888--33-----5----6-/----888666-|
e3-3-34444/6666--3-3-34444/6666--33-----3----4-/000-666666-|
                                 hld---| hld|   pm-|

Before solo:

e---------------------------------------|
b---------------------------------------|
g5555555577777777888888-1010101010101010
dxxxxxxxxxxxxxxxxxxxxxxx-x-x-x-x-x-x-x-x-|
a33333333555555556666666-8-8-8-8-8-8-8-8-|
e----------------------------------------|

e---------------------------------------|
b---------------------------------------|
g5555555577777777888888-1010101010101010
dxxxxxxxxxxxxxxxxxxxxxxx-x-x-x-x-x-x-x-x-|
a33333333555555556666666-8-8-8-8-8-8-8-8-|
e----------------------------------------|

you COULD play this next part with power chords missing the middle note like the ones 
OR you could turn on your octave pedal and play this and make it sound badass

e---------------------------------------------------------|
b---------------------------------------------------------|
g---------------------------------------------------------|
d---------------------------------------------------------|
a33333333555555556666666688888888-10~10~10~10~10~10~10~10~
e---------------------------------------------------------

e------------------------------------------------------------------------|
b------------------------------------------------------------------------|
g------------------------------------------------------------------------|
d------------------------------------------------------------------------|
a11~11~11~11~11~11~11~11~12~12~12~12~12~12~12~12~13~13~13~13~13~13~13~13~
e------------------------------------------------------------------------

there are two parts being played during this last measure of this riff, there's the one above and this

e--------------------------------------------------------|
b--------------------------------------------------------|
g5555555577777777888888-1010101010101010-1212121212121212
dxxxxxxxxxxxxxxxxxxxxxxx-x-x-x-x-x-x-x-x-x-x-x-x-x-x-x-x--|
a33333333555555556666666-8-8-8-8-8-8-8-8-1010101010101010-|
e---------------------------------------------------------|

e---------------------------------------|
b---------------------------------------|
g1010101010101010-8888888-77777777------|
dx-x-x-x-x-x-x-x--xxxxxxx-xxxxxxxx------|
a8-8-8-8-8-8-8-8--6666666-55555555------|
e---------------------------------------|

there are two other tabs of this song with the solo on it, I'm too lazy to tab it and 
of them are rather correct, so I'm going to let them have the glory of having the solo in 
tabs, BUT, I WILL tell you what's played behind the solo:

e----------------------------------------|
b----------------------------------------|
g----------------------------------------|
d----------------------------------------|
a33-5-666-66--33-5-666-66--3------3-3-3--|
e33-3-444-66--33-3-444-66--3------3-3-3--|
                           hld-----------|

Clean part after solo:

e3-4-3-4-3-6-4-|
b4-4-4-4-4-6-4-|
g5-5-5-5-5-7-5-|
d5-6-5-6-5-8-6-|
a3-6-3-6-3-8-6-|
e--4---4---6-4-|

then chorus and then the intro riffs again and you are done

questions? want me to tab something especially for you? E-mail me at:
Flava_Flav717@hotmail.com
Comments