Him - Beyond Redemption Chords & Tabs

 

Beyond Redemption Chords & Tabs

Him Chords & Tabs

Version: 1 Type: Bass Tab 0 ratings
1 star 2 stars 3 stars 4 stars 5 stars
comments

Beyond Redemption Bass Tab

   
Intro(2x)                           after the second time

G|---------------------------------|-------|
D|-------------------------66668888|-------|
A|---------6666666688888888--------|-------|
E|-88888888------------------------|-8-----|

Verse(1x)

G|-------------------------------8--------------------------|
D|------------8-10-----------------10---------------8-10----|
A|-11----11p8---------11----11p8---------11----11p8---------|
E|----------------------------------------------------------|

G|-----------------------------------------------8-------|
D|---------------8------------8-10-----------------10----|
A|-8----10-11------11----11p8---------11----11p8---------|
E|-------------------------------------------------------|

G|-----------------------------------------------------|
D|------------8-10--------------------------------8----|
A|-11----11p8---------8----10-11----8----10-11---------|
E|-----------------------------------------------------|

Chorus I(2x)

G|------------------------------------|
D|-------5-6-----8------------5-6-----|
A|------------------------------------|
E|-8--------------------8-------------|

Then Chorus II(1x)
[ Tab from: http://www.guitartabs.cc/tabs/h/him/beyond_redemption_btab.html ]
G|-------------------------------|
D|-------5-----6-----xx6---8-----|
A|-------------------------------|
E|-8-----------------------------|

Intro(2x)
Verse(1x)
Chorus I(2x)
Chorus II(1x)
Chorus I(2x)
Chorus II(1x)

Interlude I(3x)

G|---------------------------------888888881010101010101010|
D|-10101010101010101212121212121212------------------------|
A|---------------------------------------------------------|
E|---------------------------------------------------------|

Interlude II(1x)

G|-1212121212121212----------------1414141414141414-|
D|-----------------1515151515151515-----------------|
A|--------------------------------------------------|
E|--------------------------------------------------|

G|1515151515151515-|
D|-----------------|
A|-----------------|
E|-----------------|

Chorus I(4x)

then...

G|---------------------------------------------|
D|---------------------------------------------|
A|---------------------------------------------|
E|-8----------------------8--------------------|

Then play the Chorus softly:

G|-----------------------------------------------------------|
D|--------5-6-----8------------5-6-----8------------5-----6--|
A|-----------------------------------------------------------|
E|-8---------------------8--------------------8--------------|

Chorus I(2x)
Chorus II(1x)
Chorus I(2x)
Chorus II(1x)
Intro(4x)
Comments