Him - Behind The Crimson Door Chords & Tabs

 

Behind The Crimson Door Chords & Tabs

Him Chords & Tabs

Version: 4 Type: Tab

Behind The Crimson Door Tab

1More acting less writting.
tab by samael medrano.
[ Tab from: http://www.guitartabs.cc/tabs/h/him/behind_the_crimson_door_tab_ver_4.html ]
e------------------------------------------------------|
B--5-----------5---------5------------5------8---------|
G-----7--5--7-----7----------7--5--7-----7-------------|
D------------------------------------------------------|
A------------------------------------------------------|
E------------------------------------------------------|


e------------------------------------------------------|
B--5-----------5---------5-----------5-----------------|
G-----7--5--7-----7---------7--5--7-----7--5-----------|
D------------------------------------------------------|
A------------------------------------------------------|
E------------------------------------------------------|

i hope you like it.        .
viva love metal