Him - Beautiful Chords & Tabs

 

Beautiful Chords & Tabs

Him Chords & Tabs

Version: 2 Type: Tab 0 ratings
1 star 2 stars 3 stars 4 stars 5 stars
comments

Beautiful Tab

Him - Beautiful
Play in between verses
|-------------------------------------------------------------------------------|
|-------------------------------------------------------------------------------|
|-------------------------------------------------------------------------------|
|-------------------------------------------------3-~---------------------------|
|-6-6-6-6-6-6-6---9-9-9-9-9-9-9---4-4-4-4-4-4-4---3-~---------------------------|
|-6-6-6-6-6-6-6---9-9-9-9-9-9-9---4-4-4-4-4-4-4---1-~---------------------------|
|-4-4-4-4-4-4-4---7-7-7-7-7-7-7---2-2-2-2-2-2-2---------------------------------|
[ Tab from: http://www.guitartabs.cc/tabs/h/him/beautiful_tab_ver_2.html ]
(Don't know if the 2,2,0 bit is right)
|----------------------------------------------------------------------------------|
|----------------------------------------------------------------------------------|
|----------------------------------------------------------------------------------|
|-9-9-9-9-9-9-9---11-11-11-11-11-11-11---2-~---------------------------------------|
|-9-9-9-9-9-9-9---11-11-11-11-11-11-11---2-~---------------------------------------|
|-7-7-7-7-7-7-7---9--9--9--9--9--9--9----0-~---------------------------------------|


Strum this bit lightly in verses with no distortion
|------------------------------------------------------------------------------|
|------------------------------------------------------------------------------|
|-------------------------------------------------6-6-6-6-6-6-6----------- x 2-|
|-8-8-8-8-8-8-8---9-9-9-9-9-9-9---4-4-4-4-4-4-4---6-6-6-6-6-6-6----------------|
|-8-8-8-8-8-8-8---9-9-9-9-9-9-9---4-4-4-4-4-4-4---4-4-4-4-4-4-4----------------|
|-6-6-6-6-6-6-6---7-7-7-7-7-7-7---2-2-2-2-2-2-2--------------------------------|

Dont know if this tabs is 100% so please leave corrections if there are any.
Comments