Hillsongs - Your Love Is Beautiful Chords & Tabs

 

Your Love Is Beautiful Chords & Tabs

Hillsongs Chords & Tabs

Version: 1 Type: Tab 0 ratings
1 star 2 stars 3 stars 4 stars 5 stars
comments

Your Love Is Beautiful Tab

YOUR LOVE IS BEAUTIFUL
Hillsong Australia
from the album "You Are My World"
tabs by R. Rosal
super_rayfox@yahoo.com

Hillsong have 4 guitarist(more or less)
I just tab it out for 2 guitars arrangement only:
Not 100% accurate, though it can help
I'm happy to receive any e-mails or feedback, corrections....

Guitar 1: Acoustic Guitar in Standard Tuning
Guitar 2: electric Guitar in Standard Tuning

Intro:
 Guitar 1: repeat 6x's
|---7--7---6--7--7--7--7--7--7--6------------|
|---5--5---5--5--5--5--5--5--5--5------------|
|---4--4---3--4--4--4--4--4--4--3------------|
|--------------------------------------------|
|--------------------------------------------|
|--------------------------------------------|
| Guitar 2:                                  |
|--------------------------------------------|
|----12--12--11--12-12-12-12-12-12--11-------|
|-----9---9---9---9--9--9--9--9--9---9-------|
|----11--11--11--11-11-11-11-11-11--11-------|
|--------------------------------------------|
|--------------------------------------------|
Verse 1:
|-----------------------------------------------|
|---5--5--5--5--2--2--2--2--5--5--5--5--2--2--2-|
|---4--4--4--4--3--3--3--3--4--4--4--4--3--3--3-|
|---6--6--6--6--2--2--2--2--6--6--6--6--2--2--2-|
|---4--4--4--4--4--4--4--4--4--4--4--4--4--4--4-|
|-----------------------------------------------|
 You surrounded me with some songs praise

|-----------------------------------------------|
|---5--5--5--5--2--2--2--2--5--5--5--5--2--2--2-|
|---4--4--4--4--3--3--3--3--4--4--4--4--3--3--3-|
|---6--6--6--6--2--2--2--2--6--6--6--6--2--2--2-|
|---4--4--4--4--4--4--4--4--4--4--4--4--4--4--4-|
|-----------------------------------------------|
 You have brought me to this place

|-----------------------------------------------|
|---5--5--5--5--2--2--2--2--5--5--5--5--2--2--2-|
|---4--4--4--4--3--3--3--3--4--4--4--4--3--3--3-|
|---6--6--6--6--2--2--2--2--6--6--6--6--2--2--2-|
|---4--4--4--4--4--4--4--4--4--4--4--4--4--4--4-|
|-----------------------------------------------|
 Where Your love and grace move within my life

|-----------------------------------------------|
|---5--5--5--5--2--2--2--2--5--5--5--5--2--2--2-|
|---4--4--4--4--3--3--3--3--4--4--4--4--3--3--3-|
|---6--6--6--6--2--2--2--2--6--6--6--6--2--2--2-|
|---4--4--4--4--4--4--4--4--4--4--4--4--4--4--4-|
|-----------------------------------------------|
 Now Your message is my light
[ Tab from: http://www.guitartabs.cc/tabs/h/hillsongs/your_love_is_beautiful_tab.html ]
Pre-Chorus:
|------------------------------------------------|
|--2--2--2--2--2--2--2--2--------------5--5------|
|--3--3--3--3--1--1--1--1--5--5--5--5--4--4-3--3-|
|--2--2--2--2--2--2--2--2--4--4--4--4--6--6-4--4-|
|--4--4--4--4--0--0--0--0--6--6--6--6--4--4-4--4-|
|--------------------------4--4--4--4-------2--2-|
 Your love is beautiful, Your love is beautiful
|------------------------------------------------|
|------------------------------------------------|
|-------------------------5-5--5-5--5-5----------|
|--2---2---2---2---2---2--4-4--4-4--4-4----------|
|--4---4---4---4---4---4--6-6--6-6--6-6----------|
|--2---2---2---2---2---2--4-4--4-4--4-4----------|
 It's the reason why we sing

Chorus:
 Guitar 1:
|-----------------------------------------------|
|---5--5--5--5--2--2--2--2--5--5--5--5--2--2--2-|
|---4--4--4--4--3--3--3--3--4--4--4--4--3--3--3-|
|---6--6--6--6--2--2--2--2--6--6--6--6--2--2--2-|
|---4--4--4--4--4--4--4--4--4--4--4--4--4--4--4-|
|-----------------------------------------------|
| Guitar 2:
|------------------------------------11---9~--------------|
|------------------------------9--12---12----7--7-7/9-----|
|---------------------------------------------9--9---9--6~|
|---------------------------------------------------------|
|---------------------------------------------------------|
|---------------------------------------------------------|
 All around the world, let the praise begin
|--------------------------------------------------|
|---5--5--5--5--2--2--2--2--7--7--7--7-------------|
|---4--4--4--4--3--3--3--3--6--6--6--6--5--5--5--5-|
|---6--6--6--6--2--2--2--2--8--8--8--8--4--4--4--4-|
|---4--4--4--4--4--4--4--4--6--6--6--6--6--6--6--6-|
|---------------------------------------4--4--4--4-|
 All around the world, let the praise begin

Back to Intro: 4x's
Verse 2: same verse 1 riff
 I am planted here by the waters
 And I'm living for the King
 I have found my peace in the house of God
 This is where I'm meant to be

Back to Pre-Chorus
Then Chorus:
Instrumental:
Back to Chorus:
theres an Ad Lib here not so sure bout this....
|----9-12-9------------------------------------------|
|-----------12-9-------------------------------------|
|----------------11-9------------------9-11b13-9-----|
|---------------------11-9--------9-11-----------11~~|
|--------------------------11-9-11-------------------|
|----------------------------------------------------|
 (you can improvise your own picking here)

End with:
               3x's
|----------------|-----------------|
|----------------|---5-5--5-5--5-5-|
|--5-5--5-5--5-5-|---4-4--4-4--4-4-|
|--4-4--4-4--4-4-|---6-6--6-6--6-6-|
|--6-6--6-6--6-6-|---4-4--4-4--4-4-|
|--4-4--4-4--4-4-|-----------------|

Regards to my bandmates...SWITCHBLADE
Kenn see u in Texas....God's Will
Comments