Hillsongs - To The Ends Of The Earth Chords & Tabs

 

To The Ends Of The Earth Chords & Tabs

Hillsongs Chords & Tabs

Version: 2 Type: Tab 0 ratings
1 star 2 stars 3 stars 4 stars 5 stars
comments

To The Ends Of The Earth Tab

TO THE ENDS OF THE EARTH
By Hillsong

This is a nice song i love it so much this is ray villanueva by the way you may have 
my other tabs i love doing this because of GOD thanks GOD and YFC WEST A/C we are now WEST 
B C D  a cluster now yeah! my email is sillymunki@hotmail.com if you have any complaints

This is the solo for TO THE ENDS OF THE EARTH
[ Tab from: http://www.guitartabs.cc/tabs/h/hillsongs/to_the_ends_of_the_earth_tab_ver_2.html ]
E|----------------------------7---------15-14-12-7-7-----------|
B|-------7h8---------------8-----10-10----------------10p8h10--|
G|-7/9~-------7-------7-9--------------------------------------|
D|---------------7-9-------------------------------------------|
A|-------------------------------------------------------------|
E|-------------------------------------------------------------|


E|--------------7-10-10~--|
B|------7-8-10------------|
G|-7-9--------------------|
D|------------------------|
A|------------------------|
E|------------------------|


thats it and hopefully you like it sorry to MARK but this solo is 100% correct because i 
to the cd over and over again well if you don't like it that's how you want to look at 
Thanks for looking at my tab praise GOD !
Comments