Hillsongs - Tell The World Chords & Tabs

 

Tell The World Chords & Tabs

Hillsongs Chords & Tabs

Version: 2 Type: Tab 0 ratings
1 star 2 stars 3 stars 4 stars 5 stars
comments

Tell The World Tab

	PRE-VERSE GUITAR
e|---------------------------------------------------------------------------|
B|-7--7--7--7--7--7--7------3-3-3-3-3-2-2------------------------------------|
G|-9b-9b-9b-9b-9b-9b-9b-----4-4-4-2-2-2-2------------------------------------|
D|--------------------------------------4------------------------------------|
A|---------------------------------------------------------------------------|
E|---------------------------------------------------------------------------|

	VERSE GUITAR
e|---------------------------------------------------------------------------|
B|------------------------------------------------2-2-2-0-0-0-0--------------|
G|-2---2---2---2---2---2---7-7-7---2---2---2---2--4-4-4-2-2-1-1--------------|
D|-4---4---4---4---4---4---7-7-7---4---4---4---4--4-4-4-2-2-2-2--------------|
A|-4---4---4---4---4---4---5-5-5---4---4---4---4-----------------------------|
E|---------------------------------------------------------------------------|
[ Tab from: http://www.guitartabs.cc/tabs/h/hillsongs/tell_the_world_tab_ver_2.html ]
	BRIDGE GUITAR ( OTHER GUITAR FOLLOWS THE BASS )
e|-----5-5-------------------------------------------------------------------|
B|-----5-5-7-7-7-7-7-7-7-7-7-7-7---------------------------------------------|
G|-6-6-----6-6-6-6-6-6-6-6-6-6-6---------------------------------------------|
D|-7-7-----------------------------------------------------------------------|
A|---------------------------------------------------------------------------|
E|---------------------------------------------------------------------------|

	CHORUS GUITAR
e|---------------------------------------------------------------------------|
B|-2---2-2-2-2-2----------------------2---2-2-2-2-2-------7---7-7-7-7-7------|
G|-2---2-2-2-2-2----1---1-1-1-1-1-----2---2-2-2-2-2-------7---7-7-7-7-7------|
D|-2---2-2-2-2-2----2---2-2-2-2-2-----4---4-4-4-4-4-------7---7-7-7-7-7------|
A|-0---0-0-0-0-0----2---2-2-2-2-2-----4---4-4-4-4-4-------5---5-5-5-5-5------|
E|------------------0---0-0-0-0-0-----2---2-2-2-2-2--------------------------|

	OTHER CHORUS GUITAR ( WITH EMPHASIS ON MID E IN THE CHORDS )
e|---------------------------------------------------------------------------|
B|-(5)---(5)-(5)-(5)-(5)-(5)-------------------------------------------------|
G|--6-----6---6---6---6---6--------(9)---(9)-(9)-(9)-(9)-(9)-----------------|
D|--7-----7---7---7---7---7---------9-----9---9---9---9---9------------------|
A|--7-----7---7---7---7---7---------7-----7---7---7---7---7------------------|
E|--5-----5---5---5---5---5--------------------------------------------------|

e|--9-----9---9---9---9---9--------10---10-10-10-10-10-----------------------|
B|--10----10--10--10--10--10-------10---10-10-10-10-10-----------------------|
G|-(9)----(9)-(9)-(9)-(9)-(9)------11---11-11-11-11-11-----------------------|
D|--11----11--11--11--11--11-------12---12-12-12-12-12-----------------------|
A|---------------------------------12---12-12-12-12-12-----------------------|
E|---------------------------------10---10-10-10-10-10-----------------------|
Comments