Hillsongs - My Redeemer Lives Chords & Tabs

 

My Redeemer Lives Chords & Tabs

Hillsongs Chords & Tabs

Version: 1 Type: Bass Tab 0 ratings
1 star 2 stars 3 stars 4 stars 5 stars
comments

My Redeemer Lives Bass Tab

Song Title: My Redeemer Lives
Artist: Hillsongs

intro:
G----------------------------
D----------------------------
A----------------------------
E-0-0--05-5--50-0--05-5------

Verse:
G---------------------------
D---------------------------
A---------------------------
E-00-4-5-4-5-7---------------

2nd part
G----------------------------
D----------------------------
A----4-5-4-5-7---------------
E-55-------------------------

1st part & 2nd Part (2x)
[ Tab from: http://www.guitartabs.cc/tabs/h/hillsongs/my_redeemer_lives_btab.html ]
pre-chorus:
G-------------------------
D-------------------------
A-------------------------
E-7-7---7-7----5-5--77777-

Bridge:
G--------------------------------------------------------
D--------------------------------------------------------
A-55----55----44----44-----------------------------------
E----------------------44---44---22--22----44---4-77---7~

That's it... but i'm not sure about the bridge

Chorus:
G---------------------------------
D---------------------------------
A-----------------4444444--2222222
E-0000000-5555555-----------------
Comments