Hillsongs - My God Chords & Tabs

 

My God Chords & Tabs

Hillsongs Chords & Tabs

Version: 2 Type: Tab 0 ratings
1 star 2 stars 3 stars 4 stars 5 stars
comments

My God Tab

   
My God Chords/Tabs by Hillsongs, www.Ultimate-Guitar.Com by jayteaaa
(intro)
E|---------------------------|
B|---------------------------|
G|---------------------------|
D|---------------------------|
A|-----7--------7----------6-|     (continued below)
E|-4-4---4--5-5---5---7-7----|

E|---------------------------|
B|---------------------------|
G|---------------------------|
D|---------------------------|
A|-7-6---6-7-----------------|
E|-----7---------------------|

E|---------------------------|
B|---------------------------|
G|---------------------------|
D|---------------------------|
A|-----7--------7----------9-|     (continued below)
E|-4-4---4--5-5---5---7-7----|

E|---------------------------|
B|---------------------------|
G|---------------------------|
D|---------------------------|
A|--------9------------------|
E|-7--7-7---7----------------|
[ Tab from: http://www.guitartabs.cc/tabs/h/hillsongs/my_god_tab_ver_2.html ]
              A
Your faithful love
      E           B         C#m
has always been there for me
              A         E           B
The greatest love that i have ever known
            A         E
What can i give to you
                B       C#m
For all You've given to me
            A
You gave it all
     E              B
And You are all i need

Pre-chorus:
           B   C#m
You are my king,
            A
You are my God
           B   C#m
Praises I bring
               A
Come from my heart

Chorus:
            E/G#
This is for You
                A        B
For all You've done for me
         E/G#
and I wanted to show You
     A        B
How much You mean
    C#m  B
My God,
    A
my God


BRIDGE IS LIKE INTRO FIRST SECTION WITHOUT THE SECOND RIFF
Comments