Hillsongs - Let Creation Sing Chords & Tabs

 

Let Creation Sing Chords & Tabs

Hillsongs Chords & Tabs

Version: 1 Type: Bass Tab

Let Creation Sing Bass Tab

   
LET CREATION SINGS
HILLSONG 2005 ďGOD HE REIGNSĒ
BASSLINE: Arranged for 4 string Bass (should be 5 string)
Super_rayfox@yahoo.com
TAB by Rayfox and itís not 100% accurate
INTRO: Drums and keyboard: D-Em-C/E
VERSE 1: Drums and keyboard
	The whole earth, overflowing. With Your power and Your glory.
	There is no one like You, God. There is no one like You, God.

VERSE 2:
           D                Em              D           Em
|----------------------------------------------------------------------|
|----------------------------------------------------------------------|
|----------5-5-5-5\--------7-7-7-7\--------5-5-5-5\----7-7-7-7\--------|
|----------------------------------------------------------------------|
 Mountainís bow, nationís tremble. At Your feet we cry Holy

            D              Em               D          Em
|----------------------------------------------------------------------|
|----------------------------------------------------------------------|
|----------5-5-5-5\--------7-7-7-7\--------5-5-5-5\----7-7-7-7\--------|
|----------------------------------------------------------------------|
 There is no one like You, God. There is no one like You, God.

CHORUS 1:
     Gsus
|----------------------------------------------------------------------|
|----------------------------------------------------------------------|
|----/10---------------------------------------------------------------|
|----------------------------------------------------------------------|
 Let creation sing of the Risen king. Let the universe resound

        Gsus      C           Em      D            G       C   Em   D
|----------------------------------------------------------------------|
|----------------------------------------------------------------------|
|--------10-------3-----------7-------5------------10------3----7---5--|
|----------------------------------------------------------------------|
 With a shout of love we will give to You, All the highest praise

INTERLUDE:
   G                C                Em               D
|----------------------------------------------------------------------|
|----------------------------------------------------------------------|
|-------------------3-3-3-3-3-3-3-3--7-7-7-7-7-7-7-7--5-5-5-5-5-5-5-5--|
|--3-3-3-3-3-3-3-3-----------------------------------------------------|

VERSE 3:
            D              Em               D          Em
|----------------------------------------------------------------------|
|----------------------------------------------------------------------|
|----------5-5-5-5\--------7-7-7-7\--------5-5-5-5\----7-7-7-7\--------|
|----------------------------------------------------------------------|
 Let Your light shine upon us. Let Your light shine upon us

|----------------------------------------------------------------------|
|----------------------------------------------------------------------|
|-----9-9-9-9--7-7-7-7--3-3-3-3----9-9-9-9--7-7-7-7--3-3-3-3-----------|
|----------------------------------------------------------------------|
 For the glory of Your Name. Will be over all the earth.
CHORUS 2:
     Gsus   C       Em      D       Gsus        C       Dsus4   Am 
|----------------------------------------------------------------------|
|----------------------------------------------------------------------|
|-----------3-3-3-3-7-7-7-7-5-5-5-5-10-10-10-10-3-3-3-3-5-5-5-5--------|
|--3-3-3-3-3---------------------------------------------------5-5-5-5-|
 Let creation sing of the Risen king. Let the universe resound

     Gsus   C       Em      D       Gsus        C       Dsus4   Am 
|----------------------------------------------------------------------|
|----------------------------------------------------------------------|
|-----------3-3-3-3-7-7-7-7-5-5-5-5-10-10-10-10-3-3-3-3-7-7-7-7-5-5-5-5|
|--3-3-3-3-3-----------------------------------------------------------|
With a shout of love we will give to You, All the highest praise

     Gsus   C       Em      D       Gsus        C       Dsus4   Am 
|----------------------------------------------------------------------|
|----------------------------------------------------------------------|
|-----------3-3-3-3-7-7-7-7-5-5-5-5-10-10-10-10-3-3-3-3-5-5-5-5--------|
|--3-3-3-3-3---------------------------------------------------5-5-5-5-|
 Let creation sing of the Risen king. Let the universe resound
[ Tab from: http://www.guitartabs.cc/tabs/h/hillsongs/let_creation_sing_btab.html ]
     Gsus   C       Em      D       Gsus        C       Dsus4   Am 
|----------------------------------------------------------------------|
|----------------------------------------------------------------------|
|-----------3-3-3-3-7-7-7-7-5-5-5-5-10-10-10-10-3-3-3-3-7-7-7-7-5-5-5-5|
|--3-3-3-3-3-----------------------------------------------------------|
With a shout of love we will give to You, All the highest praise
 
INSTRUMENTAL:
 G        C       D/F#m    Am       G       C      D/F#m   Am 
|----------------------------------------------------------------------|
|----------------------------------------------------------------------|
|----5----3-3--3-----5----7-7--7------5----3-3--3-----5----7-7---7-----|
|-3-3--3------3---2-2--2------5----3-3--3------3---2-2--2------5-------|

BRIDGE:
G        C       D/F#m    Am       G       C      D/F#m   Am 
|----------------------------------------------------------------------|
|----------------------------------------------------------------------|
|----5----3-3--3-----5----7-7--7------5----3-3--3-----5----7-7---7-----|
|-3-3--3------3---2-2--2------5----3-3--3------3---2-2--2------5-------|
 Forever, forever Iíll sing        Forever, forever Iíll sing

(Iím not sure at this part)
  G           C          D/F#m        Am
|----------------------------------------------------------------------|
|---------------5-------5----------------------------------------------|
|----5-----5-3-3-3ó3-3-3-3---7-------5-5-5-5/7-----7-------------------|
|-3-3-3-3-3-3-------------2-2-2-2-2-2----------5-7---------------------|
  Forever, forever Iíll sing

  G            C     D/F#m           Am
|----------------------------------------------------------------------|
|---------------5------------------------------------------------------|
|----5-----5-3-3-3ó3-----7----------5-5-7-----7------------------------|
|-3-3-3-3-3-3--------2-2---2-2-2-2--------5-5--------------------------|
  Forever, forever Iíll sing

   G           C          D/F#m       Am
|----------------------------------------------------------------------|
|---------------5-------5----------------------------------------------|
|----5-----5-3-3-3ó3-3-3-3---7-------5-5-5-5/7-----7-------------------|
|-3-3-3-3-3-3-------------2-2-2-2-2-2----------5-7---------------------|
  Forever, forever Iíll sing

  G           C        D/F#m         Am
|----------------------------------------------------------------------|
|---------------5------------------------------------------------------|
|----5-----5-3-3-3ó3-----7----------5-5-7-----7------------------------|
|-3-3-3-3-3-3--------2-2---2-2-2-2--------5-5--------------------------|
  Forever, forever Iíll sing

CHORUS 3: ACAPELLA
     Gsus
|----------------------------------------------------------------------|
|----------------------------------------------------------------------|
|--------------------------------------------------------------7ó-5----|
|----3-----------------------------------------------------------------|
 Let creation sing of the Risen king. Let the universe resound

        Gsus      C           Em      D     G       C      Em   D
|----------------------------------------------------------------------|
|----------------------------------------------------------------------|
|---------------3-3-3-3-3-3-7-7-7-7-7-5-5-5-10-10-10-3-3-3-7-7-7-5-5-5-|
|-----3-3-3-3-3--------------------------------------------------------|
 With a shout of love we will give to You, All the highest praise

     Gsus   C       Em      D       Gsus        C       Dsus4   Am 
|----------------------------------------------------------------------|
|----------------------------------------------------------------------|
|-----------3-3-3-3-7-7-7-7-5-5-5-5-10-10-10-10-3-3-3-3-5-5-5-5--------|
|--3-3-3-3-3---------------------------------------------------5-5-5-5-|
 Let creation sing of the Risen king. Let the universe resound

        Gsus      C           Em      D     G       C      Em   D
|----------------------------------------------------------------------|
|----------------------------------------------------------------------|
|---------------3-3-3-3-3-3-7-7-7-7-7-5-5-5-10-10-10-3-3-3-7-7-7-5-5-5-|
|-----3-3-3-3-3--------------------------------------------------------|
 With a shout of love we will give to You, All the highest praise

OUTRO:
   G         C        D     Am       G        C       D         Am
|----------------------------------------------------------------------|
|----------------------------------------------------------------------|
|-10-10-10-10-3-3-3-3-5-5-5-------------------3-3-3-3-5-5-5-5/7--------|
|--------------------------5-5-5-5---3-3-3-3--------------------5-5-5-5|
  Forever, forever Iíll sing.        Forever, forever Iíll sing
 
  G        C       D       Am        G        C            D (.)                   
|----------------------------------------------------------------------|
|----------------------------------------------------------------------|
|---------3-3-3-3-5-5-5-5/7------------------3-3-3-3-3-3---5-----------|
|-3-3-3-3------------------5-5-5-5---3-3-3-3---------------------------|
  Forever, forever Iíll sing.        Forever, forever Iíll sing


Regards to Bahrain Fatherís House Praise and Worship Team,
Mar Dela Cruz the worship leader, Joyce Dela Cruz as worship leader &
Keyboard player, Hernan as bass guitar, James the new rhythm guitarist
Joshi the drummer, Stephen as secessionist bass player and Joshea his
Brother the little drummer boy, Fred as the organist, Back up singers:
Hayde, Delia, Faye, Ate Fe Nahid, Linda from Bohol, another Linda from UK,
Alexander and The Pastor Koshy.