Hillsongs - By Your Side Chords & Tabs

 

By Your Side Chords & Tabs

Hillsongs Chords & Tabs

Version: 1 Type: Bass Tab 0 ratings
1 star 2 stars 3 stars 4 stars 5 stars
comments

By Your Side Bass Tab

By:Hessler Minel (ashenavie@yahoo.com)
By your side

Intro:
|----------------------------------------------|
|------1/5-----3h5-----0-5-3-2--2-3------------| 1x lng 2
|----------------------------------------------| 
|-------------------------------------5\3------|
[ Tab from: http://www.guitartabs.cc/tabs/h/hillsongs/by_your_side_btab.html ]
Verse1:
|------------------------------|
|-----------0------------------|
|---3-----------3--------------|
|-------0----------------------|
Verse2:
|-------------------------------------------------------------------------|
|------------------------------------0-0-0--------------------------------|
|----------------------3-3-3----------------3-3-3--2-3-5-3-2-3-5-3-2------|
|-3-3-3--3-3-3--3-3-3---------0-0-0---------------------------------------|

Chorus:
|-----------------------|
|--------0-0-0----------|
|---------------3-3-3---|2X
|-3-3-3-----------------|

|----------------------------------------------|
|--------0-0-0----------------------------0----|
|---------------3-3-3--2-3-5-3-2-3-5-3-2-----3-|
|-3-3-3----------------------------------------|

Do intro 2x then verse1 & verse2 then chorus 2x then intro 2x then tpos na!
1st tym ko kc mag tab ng bass eh..... hehehehe...... hi nga pala sa bestfriend
ko na si Lyke Quejada. And kina Mikkoy, Kuya Vezz, Rj,
Te Dianne, and Jamie. Buong music ministry yan ng YFC midsayap.
Paki rate lng pow ha?
Comments