Hillsongs - Before The Throne Of God Above Chords & Tabs

 

Before The Throne Of God Above Chords & Tabs

Hillsongs Chords & Tabs

Version: 1 Type: Tab 0 ratings
1 star 2 stars 3 stars 4 stars 5 stars
comments

Before The Throne Of God Above Tab

Before the Throne of God Above
Charitie Lees Bancraft
Standard Tuning: EADGBe

These are the notes of the original hymn. They can be played in most any key you want,
but I tabbed how you typically hear it. It was all done by ear pretty much. Most people
do take the key up a half step for the last verse, which literally just moves all the 
notes up a half step (down one fret).

I like to bar the bottom 4 strings on the 8th fret except for during the higher part.
There are other ways to play the exact same notes; this is just what was most comfortable
to me. If you are wanting to sing it, having someone play this along with someone else 
playing corresponding chords would probably be cool.


e       |-----------------------------------------------------------------------------  |
B       |-------------8----------------------------8-----8--11--11--------------------  |
G       |------8--10-----8------8--8--------8--10-----8------------------------------   |
D       |--8----------------10------------8-------------------------------------------  |
A       |-----------------------------------------------------------------------------  |
E       |-----------------------------------------------------------------------------  |
[ Tab from: http://www.guitartabs.cc/tabs/h/hillsongs/before_the_throne_of_god_above_tab.html ]
e       |-------------8---------------------------------------------------------------  |
B       |-----8--11-----11------8--8----------8---------------------------------------  |
G       |--8-----------------10-------------8----10--8-------8---8--------------------  |
D       |---------------------------------8-------------10----------------------------  |
A       |-----------------------------------------------------------------------------  |
E       |-----------------------------------------------------------------------------  |

e       |--11--11--10--8--------------------11--11--10--8----8--10--11--------------    |
B       |--------------------11--8--11--11-----------------11-------------------------  |
G       |-----------------------------------------------------------------------------  |
D       |-----------------------------------------------------------------------------  |
A       |-----------------------------------------------------------------------------  |
E       |-----------------------------------------------------------------------------  |

e       |--11--11--10--8-------------------------------------------------------------   |
B       |--------------------11---------------------8----------------8----------------  |
G       |-----------------------10--12--12-------8-----10--8-----8-------------------   |
D       |---------------------------------------8--------------10---------------------  |
A       |-----------------------------------------------------------------------------  |
E       |-----------------------------------------------------------------------------  |

e       |-------------------------------------- |
B       |------8------------------------------- |
G       |----8---10--8-----8--8---------------- |
D       |--8------------10--------------------- |
A       |-------------------------------------- |
E       |-------------------------------------- |
Comments