Hillsongs - Awesome God Chords & Tabs

 

Awesome God Chords & Tabs

Hillsongs Chords & Tabs

Version: 1 Type: Tab 0 ratings
1 star 2 stars 3 stars 4 stars 5 stars
comments

Awesome God Tab

   
AWESOME GOD
HILLSONGS MUSIC AUSTRALIA
From the album: FOR THIS CAUSE
Tab by: Rayfox SWITCHBLADE of SURALLAH
E-mail: super_rayfox@yahoo.com

Songs are being transcribe by rayfox, its not 100% accurate
Dedicated to Patrick Ray and Ivanna Marie Rosal
INTRO:
  E                     A2               4x
|-------------------------------------------|
|-----0------0---------0--0--0--0--0--0-----|
|-------1------1-------2--2--2--2--2--2-----|
|--2------2------2-----2--2--2--2--2--2-----|
|----------------------0--0--0--0--0--0-----|
|-------------------------------------------|

VERSE:                           FILL IN RIFF A ON 2ND TIME
  E           Esus4              E Esus4 C#m7                    A2 
|-0------------0--------------0--0--4------------------------0-----0-------|
|-0------------0--------------0--0--5------------------------0-------0-----|
|-1------------2--------------1--2--4------------------------2---------2---|
|-2------------2--------------2--2--6------------------------2-----------2-|
|-2------------2--------------2--2--4------------------------0-------------|
|-0------------0--------------0--0-----------------------------------------|
 Here in this house of the Great King,we've come together now to worship Him

   E           Esus               E  Esus          C#m               A2
|--0------------0-----------------0--0------------4--4--4------------------|
|--0------------0-----------------0--0------------5-p4-p5-----------0------|
|--1------------2-----------------1--2------------6--6--6-----------2------|
|--2------------2-----------------2--2------------6--6--6-----------2------|
|--2------------2-----------------2--2------------4--4--4-----------0------|
|--0------------0-----------------0--0-------------------------------------|
 This house is built on Christ our Rock, cannot be shaken, cannot be shaken

CHORUS:
   E      A2             E   A2  E           A2              B
|--0--0---0--0--0--0-----0---0---0-----------0---0---0--0----2---2---------|
|--0--0---0--0--0--0-----0---0---0-----------0---0---0--0----4---4---------|
|--1--1---2--2--2--2-----1---2---1-----------2---2---2--2----4---4---------|
|--2--2---2--2--2--2-----2---2---2-----------2---2---2--2----4---4---------|
|--2--2---0--0--0--0-----2---0---2-----------0---0---0--0----2---2---------|
|--0--0------------------0-------0-----------------------------------------|
  God is awesome in this place, we sense His presence as we sing His praise

   C#m7                  Bsus4                  C#m7
|--4---4---4---4---------2---2---2---2----------4---4---4---4--------|
|--5---5---5---5---------5---5---5---5----------5---5---5---5--------|
|--4---4---4---4---------4---4---4---4----------4---4---4---4--------|
|--6---6---6---6---------4---4---4---4----------6---6---6---6--------|
|--4---4---4---4---------2---2---2---2----------4---4---4---4--------|
|--------------------------------------------------------------------|
  There is power here for miracles, to set the captives free
                       FILL IN RIFF B 2ND TIME
                       A2 (break)E  A2       E      A2
|----------------------0-----0---0--0--0-----0--0---0---0------------|
|----------------------0-----0---0--0--0-----0--0---0---0------------|
|----------------------2-----1---1--2--2-----1--1---2---2------------|
|----------------------2-----2---2--2--2-----2--2---2---2------------|
|----------------------0-----2---2--0--0-----2--2---0---0------------|
|----------------------------0---0-----------0--0--------------------|
 and make the broken whole, God is awesome, He's so awesome

    E      A2               E    ( BACK TO INTRO 2X)
|---0---0--0---0------------0----------------------------|
|---0---0--0---0------------0----------------------------|
|---1---1--2---2------------1----------------------------|
|---2---2--2---2------------2----------------------------|
|---2---2--0---0------------2----------------------------|
|---0---0-------------------0----------------------------|
   God is awesome in this place
[ Tab from: http://www.guitartabs.cc/tabs/h/hillsongs/awesome_god_tab.html ]
REPEAT VERSE WITH RIFF A:
|---------------------------------------|
|---------------------------------------|
|---------------------------------------|
|-------------2---4b6r4---2-------------|
|---2----4--------------------2----4----|
|---------------------------------------|

REPEAT CHORUS 2X WITH RIFF B: (not sure)
|---------------------------------------|
|--9b108b97b86b75b6-----------------|
|---------------------------------------|
|---------------------------------------|
|---------------------------------------|
|---------------------------------------|

BRIDGE:
|------------------------------------|--------------------------|
|--9--77/9--7---9--9--77/9--12--7--|--------------------------|
|--9--66/9--6---9--9--66/9------6--|---9--9--9--9----8---6----|
|------------------------------------|---9--9--9--9----9---7----|
|------------------------------------|---7--7--7--7-------------|
|------------------------------------|--------------------------|

|----------------------------------------7---9------------------| 
|--9--77/9---12--7--77/9---7---5---7/9------------------------|
|--9--66/9-------6--66/9---6---6--------------999-9--86----|
|-----------------------------------------------9-9-99-9-7----|
|-----------------------------------------------7-7-7-7---------|
|---------------------------------------------------------------|

REPEAT WITH GUITAR 2:                                     (4x)
   AM7     A6  AM7    A6      AM7      A6            AM7     A6
|---0------2----0-----2---------0-------2-------------0-------2-|
|---2------2----2-----2---------2-------2-------------2-------2-|
|---1------2----1-----2---------1-------2-------------1-------2-|
|---2------2----2-----2---------2-------2-------------2-------2-|
|---0------0----0-----0---------0-------0-------------0-------0-|
|---------------------------------------------------------------|
I've found where I belong I'm a living stone, in this house I grow 
SLOW TEMPO HERE:
       C#m7              Bsus4                C#m7
|----------------------------------------------------------------|
|------------5----------------5---------------5--5--55----------|
|----------4----4-----------4---4-------------4--4--44----------|
|--------6---------6------4-------4-----------6--6--6-6----------|
|------4----------------2---------------------4--4--44----------|
|----------------------------------------------------------------|
 There is power here for miracles, to set the captives free

                       A2                   FILL IN RIFF C
|----------------------------------------------------------------|
|----------------------0--0--0--0--0--0--0-----------------------|
|----------------------2--2--2--2--2--2--2-----------------------|
|----------------------2--2--2--2--2--2--2-----------------------|
|----------------------0--0--0--0--0--0--0-----------------------|
|----------------------------------------------------------------|
  and make the broken whole.

RIFF C: (not sure)
|--9-----7-----5---4---3-----------------------------------------|
|--12b1410b12-7b96b85b7---------------------------------------|
|----------------------------------------------------------------|
|----------------------------------------------------------------|
|----------------------------------------------------------------|
|----------------------------------------------------------------|

    E      A2       E      A2         (2x)
|---0---0--0--0-----0--0---0---0------------|
|---0---0--0--0-----0--0---0---0------------|
|---1---1--2--2-----1--1---2---2------------|
|---2---2--2--2-----2--2---2---2------------|
|---2---2--0--0-----2--2---0---0------------|
|---0---0-----------0--0--------------------|
    God is awesome, He's so awesome
                                 END HERE.....
    E      A2               E    
|---0---0--0---0------------0----------------------------|
|---0---0--0---0------------0----------------------------|
|---1---1--2---2------------1----------------------------|
|---2---2--2---2------------2----------------------------|
|---2---2--0---0------------2----------------------------|
|---0---0-------------------0----------------------------|
   God is awesome in this place

super_rayfox@yahoo.com
Hi to SOUTH COTABATO ROCKERS...
Comments