Hillsongs - All Day Chords & Tabs

 

All Day Chords & Tabs

Hillsongs Chords & Tabs

Version: 1 Type: Tab 0 ratings
1 star 2 stars 3 stars 4 stars 5 stars
comments

All Day Tab

   
-------------------------------------------------------------------------
                           Hillsongs- All day
-------------------------------------------------------------------------
Band: Hillsongs
Song: All day
Album: United
Tabber: [stickboy_254]

Bass tuning: E A D G

 Intro/verse: figure out how to paly it yourself
G----------------------------------------------------------------------------|
D----------------------6-----------------------------------------------------|
A------------------7------7---------6H7--------2--1--------------------------|
E-----4-------7------------------7------------2------------------------------|

Pre- chorus:
[ Tab from: http://www.guitartabs.cc/tabs/h/hillsongs/all_day_tab.html ]
G-----------------------------------------------------------------------|
D-----------------------------------------------------------------------|
A-------------------2---------------------------------------------------|
E------4----0--------------2--------------------------------------------|


Chorus:

G------------------------------------------------------------------------|
D------------------------------------------------------------------------|
A------2--------2----------2---------------------------------------------|
E----------0---------2----------0------4----2----------------------------|
All day, All day now.............................

Bridge:

G-----------------------------------------------------------|
D-----------------------------------------------------------|
A--4----------7---X3--------4--------7------------2---X1----|
E-----------------------------------------------------------|
                            ........i pay that you would save them to.

there you go , the songs all there just figure out the order yourself!!!!
Comments