Hillsong United - Go Chords & Tabs

 

Hillsong United Chords & Tabs

Version: 1 Type: Tab 0 ratings
1 star 2 stars 3 stars 4 stars 5 stars
comments

Go Tab

   
-------------------------------------------------------------------------------
			      Go - Hillsong
-------------------------------------------------------------------------------
Tabbed by: oogah33
Email: oogah3@live.ca

Tuning: Standared (EADGBe)


Intro and Verse 1 : *This part is all Palm Muted
e|---------------------------------------------------------------------------|
B|---------------------------------------------------------------------------|
G|--4-4-4-4-4-4-4-4-4-4-4-4-4-4-4-4-4-4-4-4-4-4-4-4-4-4-4-4-4-4-4-4-4-4-4-4--|
D|--4-4-4-4-4-4-4-4-4-4-4-4-4-4-4-4-4-4-4-4-4-4-4-4-4-4-4-4-4-4-4-4-4-4-4-4--|
A|--2-2-2-2-2-2-2-2-2-2-2-2-2-2-2-2-2-2-2-2-2-2-2-2-2-2-2-2-2-2-2-2-2-2-2-2--|
E|---------------------------------------------------------------------------|
    * * * * * * * * * * * * * * * * * * * * * * * * * * * * * * * * * * * *

Pre Chorus (1st Guitar):
e|---14-------------------14-----------------14------------------------------|
B|------14--16--12-----------14--16--12---------14--16--12-------------------|
G|-----------------11-------------------11-----------------11----------------|
D|---------------------------------------------------------------------------|
A|---------------------------------------------------------------------------|
E|---------------------------------------------------------------------------|

Pre Chorus (2nd Guitar): 
e|---------------------------------------------------------------------------|
B|---------------------------------------------------------------------------|
G|-----------------4---------------------------------------------------------|
D|---2------6------4-----6------2------6------4------------------------------|
A|---2------6------2-----6------2------6------4------------------------------|
E|---0------4------------4------0------4------2------------------------------|
    x8     x8     x8    x8     x8     x8     x16
Chorus 1:
e|---------------------------------------------------------------------------|
B|---------------------------------------------------------------------------|
G|--4-4-4-4-4-4-4-4-4-4-4-4-4-4-4-4-4-4-4-4-4-4-4-4-4-4-4-4-4-4-4-4-4-4-4-4--|
D|--4-4-4-4-4-4-4-4-4-4-4-4-4-4-4-4-4-4-4-4-4-4-4-4-4-4-4-4-4-4-4-4-4-4-4-4--|
A|--2-2-2-2-2-2-2-2-2-2-2-2-2-2-2-2-2-2-2-2-2-2-2-2-2-2-2-2-2-2-2-2-2-2-2-2--|
E|---------------------------------------------------------------------------|
    * * * * * * * * * * * * * * * * * * * * * * * * * * * * * * * * * * * *

Post Chorus:
e|---------------------------------------------------------------------------|
B|---------------------------------------------------------------------------|
G|---------------------------------------------------------------------------|
D|----------------6--------------------------------6-------------------------|
A|------------------7-7-7-7-7-9-9-9------------------7-7-7-7-7-9-9-9---------|
E|--7-7-7-7-7-4-7--------------------7-7-7-7-7-4-7---------------------------|

Verse 2:
e|---------------------------------------------------------------------------|
B|---------------------------------------------------------------------------|
G|--4-4-4-4-4-4-4-4-4-4-4-4-4-4-4-4-4-4-4-4-4-4-4-4-4-4-4-4-4-4-4-4-4-4-4-4--|
D|--4-4-4-4-4-4-4-4-4-4-4-4-4-4-4-4-4-4-4-4-4-4-4-4-4-4-4-4-4-4-4-4-4-4-4-4--|
A|--2-2-2-2-2-2-2-2-2-2-2-2-2-2-2-2-2-2-2-2-2-2-2-2-2-2-2-2-2-2-2-2-2-2-2-2--|
E|---------------------------------------------------------------------------|
    * * * * * * * * * * * * * * * * * * * * * * * * * * * * * * * * * * * *

Pre Chorus (1st Guitar):
e|---14-------------------14-----------------14------------------------------|
B|------14--16--12-----------14--16--12---------14--16--12-------------------|
G|-----------------11-------------------11-----------------11----------------|
D|---------------------------------------------------------------------------|
A|---------------------------------------------------------------------------|
E|---------------------------------------------------------------------------|

Pre Chorus (2nd Guitar): 
e|---------------------------------------------------------------------------|
B|---------------------------------------------------------------------------|
G|-----------------4---------------------------------------------------------|
D|---2------6------4-----6------2------6------4------------------------------|
A|---2------6------2-----6------2------6------4------------------------------|
E|---0------4------------4------0------4------2------------------------------|
    x8     x8     x8    x8     x8     x8     x16
[ Tab from: http://www.guitartabs.cc/tabs/h/hillsong_united/go_tab.html ]
Chorus 2: 
e|---------------------------------------------------------------------------|
B|---------------------------------------------------------------------------|
G|---4-----------------------------------------------------------------------|
D|---4-----------------------------------------------------------------------|
A|---2-----------------------------------------------------------------------|
E|---------------------------------------------------------------------------|
    x32
"We're giving it all away away"                           "We're giving it

e|---------------------------------------------------------------------------|
B|---------------------------------------------------------------------------|
G|---------------------------------------------------------------------------|
D|--2-------6-------2--------------------------------------------------------|
A|--2-------6-------2--------------------------------------------------------|
E|--0-------4-------0--------------------------------------------------------|
    x8      x8      x8
   all to go your way"

Post Chorus:
e|---------------------------------------------------------------------------|
B|---------------------------------------------------------------------------|
G|---------------------------------------------------------------------------|
D|----------------6--------------------------------6-------------------------|
A|------------------7-7-7-7-7-9-9-9------------------7-7-7-7-7-9-9-9---------|
E|--7-7-7-7-7-4-7--------------------7-7-7-7-7-4-7---------------------------| x3

Bridge: (1st Guitar)
e|---14----------------------------------------------------------------------|
B|------14--16--12-----------------------------------------------------------|
G|-----------------11--------------------------------------------------------|
D|---------------------------------------------------------------------------|
A|---------------------------------------------------------------------------|
E|---------------------------------------------------------------------------| x7

Bridge (2nd Guitar)
e|---------------------------------------------------------------------------|
B|---------------------------------------------------------------------------|
G|----6----------------------6-----------------------6-----------------------|
D|----6------2------4--------6------2------4---------6------2------4---------|
A|----4------2------4--------4------2------4---------4------2------4---------|
E|-----------0------2---------------0------2----------------0------2---------|
      x8     x8    x16       x8     x8    x16        x8     x8    x16

e|---------------------------------------------------------------------------|
B|---------------------------------------------------------------------------|
G|--------------6------------------------------------------------------------|
D|----2---------6------------------------------------------------------------|
A|----2---------4------------------------------------------------------------|
E|----0----------------------------------------------------------------------|
     x16       x16

Chorus 3:
e|---------------------------------------------------------------------------|
B|---------------------------------------------------------------------------|
G|---4-----------------------------------------------------------------------|
D|---4-----------------------------------------------------------------------|
A|---2-----------------------------------------------------------------------|
E|---------------------------------------------------------------------------|
    x32
"We're giving it all away away"                           "We're giving it

e|---------------------------------------------------------------------------|
B|---------------------------------------------------------------------------|
G|---------------------------------------------------------------------------|
D|--2-------6-------2--------------------------------------------------------|
A|--2-------6-------2--------------------------------------------------------|
E|--0-------4-------0--------------------------------------------------------|
    x8      x8      x8
   all to go your way"

Post Chorus:
e|---------------------------------------------------------------------------|
B|---------------------------------------------------------------------------|
G|---------------------------------------------------------------------------|
D|----------------6--------------------------------6-------------------------|
A|------------------7-7-7-7-7-9-9-9------------------7-7-7-7-7-9-9-9---------|
E|--7-7-7-7-7-4-7--------------------7-7-7-7-7-4-7---------------------------| 



************************************

| /   slide up
| \   slide down
| h   hammer-on
| p   pull-off
| ~   vibrato
| +   harmonic
| x   Mute note
| b   Bend
| pb  Pre-bend
| br  Bend release
| pbr Pre-bend release
| brb Bend release bend

************************************
Comments
Hillsong United chords | Hillsong United Go tab