Hillsong - All About You Chords & Tabs

 

All About You Chords & Tabs

Hillsong Chords & Tabs

Version: 1 Type: Tab 0 ratings
1 star 2 stars 3 stars 4 stars 5 stars
comments

All About You Tab

   
ALL ABOUT YOU 
Words and music by Joel houston
Tabbed by Joe Wieky
Email: Christ_saviour@hotmail.com

1.Intro: 
heavy distortion
   A                        E/G#                          D
e--------------------------|-----------------------------|---------------------------|
B--------------------------|-----------------------------|---------------------------|
G-----4h6-4h6-4h6-4h6bu-bd-|--4h6-4h6-4h6-4h6bu-bd-------|-4h6-4h6-4h6-4h6bu-bd------|
D--------------------------|-----------------------------|---------------------------|
A--------------------------|-----------------------------|---------------------------|
E--------------------------|-----------------------------|---------------------------|
   D                         lead to verse
e -------------------------||-------------------------------------|
B--------------------------||-------------------------------------|
G--4h6-4h6-4h6-4h6bu bd----||--4----2-----1-----------------------|
D--------------------------||-------------------------------------|
A--------------------------||-------------------------------------|
E--------------------------||-------------------------------------|

2.Verse:
F#m7  E  D2 x2
F#m7  E/G#  A2  D
F#m7  E

3.Chorus:
A  E  F#m7  D2  A  E/G#  D2  F#m7  E

4.Intro 

5.Verse

6.Chorus
[ Tab from: http://www.guitartabs.cc/tabs/h/hillsong/all_about_you_tab.html ]
7.Bridge: and the walls will fall down......
   Bm7                      F#m7                    D
e -----------------------|------------------------|------------------------------------|
B------------------------|------------------------|------------------------------------|
G--4\\----------------|------------------------|--7\\-----12--14--7///--12--14----|
D--4\\----------------|--4\\\---------------|--7\\-----12--14--7///--12--14----|
A--2\\----------------|--4\\\---------------|--5\\-----10--12--5///--10--12----|
E------------------------|--2\\\---------------|------------------------------------|




   Bm7                      F#m7                                      D
e -----------------------|------------------------|-----------------------------------|
B------------------------|------------------------|-----------------------------------|
G--4////-----------------|------------------------|--7////----------------------------|
D--4////-----------------|--4////-----------------|--7///-----------------------------|
A--2////-----------------|--4////-----------------|--5///-----------------------------|
E------------------------|--2////-----------------|-----------------------------------|

8. 2nd bridge: cause we're all about you......
e --7--5--4--5--7------------------|  repeat continuously
B----------------------------------|  until the chorus....
G----------------------------------|
D----------------------------------|
A----------------------------------|
E----------------------------------|

9. Chorus

10. Coda: 
A  E/G#  D2

11. Outro: and all the walls are falling down as the nation praise.....
A  E/G#  D  A  E/G#  D2
______________________________________________________________________
h= hammer on
bu= bend up
bd= bend down
/////= strum

chords:
            power /normal
F#m7        244xxx/2x2200
E/G#        466xxx/4x2400
D2          x577xx/xx0230
A2          577xxx/x02200
A           577xxx/x02220
Bm7         x244xx/x2023x
D           x577xx/xx0232
E           022xxx/0221000
Comments