Hilary Duff - Why Not Chords & Tabs

 

Why Not Chords & Tabs

Hilary Duff Chords & Tabs

Version: 2 Type: Tab 0 ratings
1 star 2 stars 3 stars 4 stars 5 stars
comments

Why Not Tab

   
INTRO
E------------------------------------------------------------------------------|
B------------------------------------------------------------------------------|
G-----6----4---1---2-----------------------------------------------------------|
D-----6----4---2---2-----------------------------------------------------------|
A-----4----2---2---------------------------------------------------------------|
E------------------------------------------------------------------------------|
[ Tab from: http://www.guitartabs.cc/tabs/h/hilary_duff/why_not_tab_ver_2.html ]
Verse
E--------------------------------------------------------------------------------|
B--------------------------------------------------------------------------------|
G-----1--1--2--6--6--4--4--2-----------------------------------------------------|
D-----2--2--2--6--6--4--4--------------------------------------------------------|
A-----2--2-----4--4--2--2--------------------------------------------------------|
E--------------------------------------------------------------------------------|
Repeat Verse 3 Times Then Play A(Hold)
E--------------------------------------------------------------------------------------|
B--------------------------------------------------------------------------------------|
G--------------1--1--2--6--6--4--4-----------------------------------------------------|
D--------------2--2--2--6--6--4--4-----------------------------------------------------|
A--------------2--2-----4--4--2--2-----------------------------------------------------|
E--------------------------------------------------------------------------------------|

Repeat Verse For 3 more Times Then Play A(Hold)

CHOROUS

E--------------------------------------------------------------------------------------|
B--------------------------------------------------------------------------------------|
G----6--6--2--2--1--1--4--4--4---------------------------------------------------------|
D----6--6--2--2--2--1--4--4--4---------------------------------------------------------|
A----4--4--------2--2--2--2--2---------------------------------------------------------|
E--------------------------------------------------------------------------------------|

Repeat For 3 Times Then Play
A E A E


E------------------------------------------------------------------------------|
B------------------------------------------------------------------------------|
G-----1--1--2--6--6--4--4------------------------------------------------------|
D-----2--2--2--6--6--4--4------------------------------------------------------|
A-----2--2-----4--4--2--2------------------------------------------------------|
E------------------------------------------------------------------------------|
Comments