Hilary Duff - Why Not Chords & Tabs

 

Why Not Chords & Tabs

Hilary Duff Chords & Tabs

Version: 1 Type: Tab 0 ratings
1 star 2 stars 3 stars 4 stars 5 stars
comments

Why Not Tab

   
Title: Why Not - The only correct version on UG (even includes the solo! yay!)
Artist: Hillary Duff
Album: Lizzie McGuire the Movie Soundtrack
Year: You dont care that much do ya
Tuning: EADGBE sometimes known as standard

Intro: strum these chords a bunch of times each

  C#m7  Esus2/B E/B  Esus4/A
E|-0------0------0-----0----------------------------------------
B|-0------0------0-----0----------------------------------------
G|-6------4------1-----2----------------------------------------
D|-6------4------2-----2----------------------------------------
A|-4------2------2-----0----------------------------------------
E|---------------x----------------------------------------------

Verse: play this first bit 3 times

E/B  Esus4/A  C#m7  Esus2/B

This is followed by an Esus4/A
[ Tab from: http://www.guitartabs.cc/tabs/h/hilary_duff/why_not_tab.html ]
Chorus: the first bit 3 times then this:
E|-0-----0-----0------0-----|-0----0-------0----0---
B|-0-----0-----0------0-----|-0----0-------0----0---
G|-6-----2-----1------4-----|-2----1-------2----1---
D|-6-----2-----2------2-----|-2----2-------2----2---
A|-4-----0-----2------2-----|-0----2-------0----2---
E|-------------x------------|------x------------x---

Bridge: This bit 3 times
E|-0-----0-----0-----0---
B|-0-----0-----0-----0---
G|-4-----6-----4-----1---
D|-4-----6-----4-----2---
A|-2-----4-----2-----2---
E|-------------------x---

then this once:
F#add11 Esus4/A
E|-x-----0---
B|-0-----0---
G|-3-----2---
D|-4-----2---
A|-4-----0---
E|-2---------

Then play 2 bars of Esus4/A  followed by 2 bars of Esus2/B twice.
Now can crank up for the solo!

The almighty solo:
E|----------------------9------9------9--9----------------------
B|------------9-12--12b14--12b14--12b14----12-9----9------------
G|-------9-11-----------------------------------11---11-9-------
D|--9/11--------------------------------------------------9\----
A|--------------------------------------------------------------
E|--------------------------------------------------------------

Breakdown:
play this once:
C#m7   Esus2/B  F#add11  Esus4/A

then this twice:
C#m7   Esus4/A    E/B    Esus2/B

And that's it! I'm sure Hillary is going to be in the running for best metal
release at next year's grammy awards with heavy shit like this. hahahahaha. 
Tabbed by noodles_wazaman / /03 (wazman87@hotmail.com)
Comments