Hilary Duff - Whos That Girl Chords & Tabs

 

Whos That Girl Chords & Tabs

Hilary Duff Chords & Tabs

Version: 2 Type: Tab 0 ratings
1 star 2 stars 3 stars 4 stars 5 stars
comments

Whos That Girl Tab


I noticed the other tab out there had some errors so I re-tabbed it:




[ Tab from: http://www.guitartabs.cc/tabs/h/hilary_duff/whos_that_girl_tab_ver_2.html ]
e------------------------------------------------------------------------|
b------------11--10---------10--8-----------8--6----------3--8-----------|
g------7----------------5-------------3---------------5------------------|
d--5----------------3--------------1--------------3----------------------|
a------------------------------------------------------------------------|
e------------------------------------------------------------------------|




e------------------------------------------------------------------------|
b------------11--10---------10--8----------------------------------------|
g------7----------------5------------------------------------------------|
d--5----------------3----------------------------------------------------|
a------------------------------------------------------------------------|
e------------------------------------------------------------------------|



by Emily "Sapphire"
Comments