Hilary Duff - Whos That Girl Chords & Tabs

 

Whos That Girl Chords & Tabs

Hilary Duff Chords & Tabs

Version: 1 Type: Tab 0 ratings
1 star 2 stars 3 stars 4 stars 5 stars
comments

Whos That Girl Tab

I'll tab out what one guitar is doing.then the other.

e-6--5--5-3--3-1--1-3--6--5-5-3------------------------------------------|
b------------------------------------------------------------------------|
g------------------------------------------------------------------------|
d------------------------------------------------------------------------|
a------------------------------------------------------------------------|
E------------------------------------------------------------------------|

Here's the other part.(This part is actually what you hear first).
[ Tab from: http://www.guitartabs.cc/tabs/h/hilary_duff/whos_that_girl_tab.html ]
e------------------------------------------------------------------------|
b------------------------------------------------------------------------|
g------7-------5-------3------5------------------------------------------|
d---5-----3-------1-------3----------------------------------------------|
a------------------------------------------------------------------------|
E------------------------------------------------------------------------|

So when you put them both together and play them how the song goes,you get this next 
tabbed out for you.(I can never do this by myself so I guess it would take two guitars to 
this).

e------------6--5------------5--3---------3--1----------1---3------------|
b------------------------------------------------------------------------|
g------7----------------5-------------3---------------5------------------|
d--5----------------3--------------1--------------3----------------------|
a------------------------------------------------------------------------|
E------------------------------------------------------------------------|


Well, that's about all there is to it that I have figured out.When I figure out more 
keep you posted.


~Emily~
Comments