Hilary Duff - Wake Up Chords & Tabs

 

Wake Up Chords & Tabs

Hilary Duff Chords & Tabs

Version: 1 Type: Bass Tab

Wake Up Bass Tab

   
WAKE UP-  <3 Hilary Duff <3
Tabbed by, Joel Laramay
~~~~~~~~~~~~~~~~~~~~~~~~~~~~
***Thanks to "LuminousFlux" for posting some chords!
(Intro & Verses w/deliberate quarternotes)


[*INTRO*] 
{w/kickbass)
G|---------|X4|---------|---------|---------|---------------|
D|---------|X4|---------|---------|---------|---------------|
A|---------|X4|-4-4-4-4-|-2-2-2-2-|---------|---------------|
E|-0-0-0-0-|X4|---------|---------|-0-0-0-0-|-0-0-0-0--9/0--|


[*VERSE*]
G|---------|X4|---------|---------|---------|---------|
D|---------|X4|---------|---------|---------|---------|
A|---------|X4|-0-0-0-0-|-2-2-2-2-|---------|---------|
E|-0-0-0-0-|X4|---------|---------|-0-0-0-0-|-0-0-0-0-|


[*P-CHORUS*]
(use pick)
G|---------|---------|---------|---------|
D|---------|---------|---------|---------|
A|-7-7-7-7-|-2-2-2-2-|-0-0-0-0-|-0-0-0-0-|
E|---------|---------|---------|---------|
[ Tab from: http://www.guitartabs.cc/tabs/h/hilary_duff/wake_up_btab.html ]
G|---------|---------|---------|---------|
D|---------|---------|---------|---------|
A|-4-4-4-4-|-2-2-2-2-|-0-0-0-0-|-0-0-0-0-|
E|---------|---------|---------|---------|


[*CHORUS*]
(back to fingers)
G|---------|---------|---------|---------|X2|
D|---------|---------|---------|---------|X2|
A|-7-7-7-7-|---------|-4-4-4-4-|-2-2-2-2-|X2|
E|---------|-5-5-5-5-|---------|---------|X2|

G|------------------|------------|
D|------------------|------------|
A|-0---------0------|---------7*-|
E|------------------|
  tonight....tonight. Yeah tonight.

G|---------|------------|
D|---------|------------|
A|---------|------------|
E|-0-0-0-0-|-0-0-0--9/0-|


[*BRIDGE*]
(pick w/distortion)
G|---------|---------|---------|---------|X2|
D|---------|---------|---------|---------|X2|
A|-4-4-4-4-|-0-0-0-0-|-2-2-2-2-|-0-0-0-0-|X2|
E|---------|---------|---------|---------|X2|

G|---------|X8|
D|---------|X8|
A|---------|X8|
E|-0-0-0-0-|X8|