Hilary Duff - Someones Watching Over Me Chords & Tabs

 

Someones Watching Over Me Chords & Tabs

Hilary Duff Chords & Tabs

Version: 1 Type: Tab

Someones Watching Over Me Tab

   
SOMEONE WATCHING OVER ME - ACOUSTIC VERSION -
As recorded by Hilary Duff



Transcribed by Mauro Viola

 

 

Gtr I (E A D G B E) - 'Rhythm left'
Gtr II (E A D G B E) - 'Rhythm left'


 Intro
  Q=76
 4/4
  Gtr I
  W          W          W          E. S E S S +S  S E +S  S S S
|----------|----------|----------|-4--4-4-4-4-(4)-4-4-(4)-4-4-4-|
|----------|----------|----------|-5--5-5-5-5-(5)-5-5-(5)-5-5-5-|
|----------|----------|----------|-6--6-6-6-6-(6)-6-6-(6)-6-6-6-|
|----------|----------|----------|-6--6-6-6-6-(6)-6-6-(6)-6-6-6-|
|----------|----------|----------|-4--4-4-4-4-(4)-4-4-(4)-4-4-4-|
|----------|----------|----------|------------------------------|


                                Verse
                             $
                                 Gtrs I, II
  E. S +E  E +E  S S S S S S     E S S E S S E S S +S  S S S
|-4--4-(4)-5-(5)-5-5-5-5-5-5-||--4-4-4-4-4-4-4-4-4-(4)-4-4-4-|
|-4--4-(4)-5-(5)-5-5-5-5-5-5-||o-5-5-5-5-5-5-5-5-5-(5)-5-5-5-|
|-4--4-(4)-6-(6)-6-6-6-6-6-6-||--6-6-6-6-6-6-6-6-6-(6)-6-6-6-|
|-6--6-(6)-7-(7)-7-7-7-7-7-7-||--6-6-6-6-6-6-6-6-6-(6)-6-6-6-|
|-6--6-(6)-7-(7)-7-7-7-7-7-7-||o-4-4-4-4-4-4-4-4-4-(4)-4-4-4-|
|-4--4-(4)-5-(5)-5-5-5-5-5-5-||------------------------------|


  E S S E S S E S S +S  S S S
|-2-2-2-2-2-2-2-2-2-(2)-2-2-2--|
|-2-2-2-2-2-2-2-2-2-(2)-2-2-2--|
|-2-2-2-2-2-2-2-2-2-(2)-2-2-2--|
|-4-4-4-4-4-4-4-4-4-(4)-4-4-4--|
|-4-4-4-4-4-4-4-4-4-(4)-4-4-4--|
|-2-2-2-2-2-2-2-2-2-(2)-2-2-2--|


                                              |--3---|
  E S S E S S E S S +S  S S S   E S S S S S S Q  Q   Q
|-2-2-2-2-2-2-2-2-2-(2)-2-2-2-|-4-4-4-4-4-4-4---------------||
|-4-4-4-4-4-4-4-4-4-(4)-4-4-4-|-5-5-5-5-5-5-5--------------o||
|-4-4-4-4-4-4-4-4-4-(4)-4-4-4-|-4-4-4-4-4-4-4--------6------||
|-4-4-4-4-4-4-4-4-4-(4)-4-4-4-|-6-6-6-6-6-6-6-6--6--(6)-----||
|-2-2-2-2-2-2-0-0-0-(0)-0-0-0-|-7-7-7-7-7-7-7-6--7--(7)----o||
|-----------------------------|-4-4-4-4-4-4-4-4-(4)-(4)-----||


   Bridge
                            1.                         2.
    E. S E S S S S E E S S   E. S E S S S S E E S S     E. S E S S H
||--5--5-5-5-5-5-5-5-5-5-5-|-------------------------||-----------------||
||o-5--5-5-5-5-5-5-5-5-5-5-|-7--7-7-7-7-7-7-7-7-7-7-o||-7--7-7-7-7-7----||
||--6--6-6-6-6-6-6-6-6-6-6-|-8--8-8-8-8-8-8-8-8-8-8--||-8--8-8-8-8-8----||
||--7--7-7-7-7-7-7-7-7-7-7-|-9--9-9-9-9-9-9-9-9-9-9--||-9--9-9-9-9-9----||
||o-7--7-7-7-7-7-7-7-7-7-7-|-9--9-9-9-9-9-9-9-9-9-9-o||-9--9-9-9-9-9----||
||--5--5-5-5-5-5-5-5-5-5-5-|-7--7-7-7-7-7-7-7-7-7-7--||-7--7-7-7-7-7----||


 Chorus
  E. S E S S S S E S S S S   E. S E S S S S E S S S S
|-0--0-0-0-0-0-0-0-0-0-0-0-|-2--2-2-2-2-2-2-2-2-2-2-2-|
|-0--0-0-0-0-0-0-0-0-0-0-0-|-4--4-4-4-4-4-4-4-4-4-4-4-|
|-1--1-1-1-1-1-1-1-1-1-1-1-|-4--4-4-4-4-4-4-4-4-4-4-4-|
|-2--2-2-2-2-2-2-2-2-2-2-2-|-4--4-4-4-4-4-4-4-4-4-4-4-|
|-2--2-2-2-2-2-2-2-2-2-2-2-|-2--2-2-2-2-2-2-2-2-2-2-2-|
|-0--0-0-0-0-0-0-0-0-0-0-0-|--------------------------|


  E. S E S S S S S S S S S S   E. S E S S S S S S S S S S
|-4--4-4-4-4-2-2-2-2-2-2-2-2-|-5--5-5-5-5-----------------|
|-5--5-5-5-5-4-4-4-4-4-4-4-4-|-5--5-5-5-5-7-7-7-7-7-7-7-7-|
|-6--6-6-6-6-4-4-4-4-4-4-4-4-|-6--6-6-6-6-8-8-8-8-8-8-8-8-|
|-6--6-6-6-6-4-4-4-4-4-4-4-4-|-7--7-7-7-7-9-9-9-9-9-9-9-9-|
|-4--4-4-4-4-2-2-2-2-2-2-2-2-|-7--7-7-7-7-9-9-9-9-9-9-9-9-|
|----------------------------|-5--5-5-5-5-7-7-7-7-7-7-7-7-|


  E. S E S S S S E S S S S   E. S E S S S S E S S S S
|-0--0-0-0-0-0-0-0-0-0-0-0-|-2--2-2-2-2-2-2-2-2-2-2-2-|
|-0--0-0-0-0-0-0-0-0-0-0-0-|-4--4-4-4-4-4-4-4-4-4-4-4-|
|-1--1-1-1-1-1-1-1-1-1-1-1-|-4--4-4-4-4-4-4-4-4-4-4-4-|
|-2--2-2-2-2-2-2-2-2-2-2-2-|-4--4-4-4-4-4-4-4-4-4-4-4-|
|-2--2-2-2-2-2-2-2-2-2-2-2-|-2--2-2-2-2-2-2-2-2-2-2-2-|
|-0--0-0-0-0-0-0-0-0-0-0-0-|--------------------------|


  E. S E S S S S S S S S S S
|-4--4-4-4-4-2-2-2-2-2-2-2-2--|
|-5--5-5-5-5-4-4-4-4-4-4-4-4--|
|-6--6-6-6-6-4-4-4-4-4-4-4-4--|
|-6--6-6-6-6-4-4-4-4-4-4-4-4--|
|-4--4-4-4-4-2-2-2-2-2-2-2-2--|
|-----------------------------|


                                                   To Coda    D.S. al Coda
  E. S E S S S S S S S S S S   E. S E S S S S S S S S S S   E. S E S S H
|-0--0-0-0-0-0-0-0-0-0-0-0-0-|-5--5-5-5-5-----------------|-0--0-0-0-0-0---||
|-0--0-0-0-0-0-0-0-0-0-0-0-0-|-5--5-5-5-5-7-7-7-7-7-7-7-7-|-0--0-0-0-0-0---||
|-3--3-3-3-3-3-3-3-3-3-3-3-3-|-6--6-6-6-6-8-8-8-8-8-8-8-8-|-1--1-1-1-1-1---||
|-4--4-4-4-4-4-4-4-4-4-4-4-4-|-7--7-7-7-7-9-9-9-9-9-9-9-9-|-2--2-2-2-2-2---||
|-4--4-4-4-4-4-4-4-4-4-4-4-4-|-7--7-7-7-7-9-9-9-9-9-9-9-9-|-2--2-2-2-2-2---||
|-2--2-2-2-2-2-2-2-2-2-2-2-2-|-5--5-5-5-5-7-7-7-7-7-7-7-7-|-0--0-0-0-0-0---||

[ Tab from: http://www.guitartabs.cc/tabs/h/hilary_duff/someones_watching_over_me_tab.html ]
 special
  &
  Gtr II
  E. S E S S S S E S S S S   E. S E S S S S E S S S S
|-0--0-0-0-0-0-0-0-0-0-0-0-|-4--4-4-4-4-4-4-4-4-4-4-4-|
|-0--0-0-0-0-0-0-0-0-0-0-0-|-5--5-5-5-5-5-5-5-5-5-5-5-|
|-1--1-1-1-1-1-1-1-1-1-1-1-|-6--6-6-6-6-6-6-6-6-6-6-6-|
|-2--2-2-2-2-2-2-2-2-2-2-2-|-6--6-6-6-6-6-6-6-6-6-6-6-|
|-2--2-2-2-2-2-2-2-2-2-2-2-|-4--4-4-4-4-4-4-4-4-4-4-4-|
|-0--0-0-0-0-0-0-0-0-0-0-0-|--------------------------|


  E. S E S S S S S S S S S S
|-2--2-2-2-2-2-2-2-2-2-2-2-2--|
|-4--4-4-4-4-4-4-4-4-4-4-4-4--|
|-4--4-4-4-4-4-4-4-4-4-4-4-4--|
|-4--4-4-4-4-4-4-4-4-4-4-4-4--|
|-2--2-2-2-2-2-2-2-2-2-2-2-2--|
|-----------------------------|


  E. S E S S S S S S S S S S
|-5--5-5-5-5-----------------|
|-5--5-5-5-5-7-7-7-7-7-7-7-7-|
|-6--6-6-6-6-8-8-8-8-8-8-8-8-|
|-7--7-7-7-7-9-9-9-9-9-9-9-9-|
|-7--7-7-7-7-9-9-9-9-9-9-9-9-|
|-5--5-5-5-5-7-7-7-7-7-7-7-7-|


  E. S E S S S S E S S S S   E. S E S S S S E S S S S
|-0--0-0-0-0-0-0-0-0-0-0-0-|-4--4-4-4-4-4-4-4-4-4-4-4--|
|-0--0-0-0-0-0-0-0-0-0-0-0-|-5--5-5-5-5-5-5-5-5-5-5-5--|
|-1--1-1-1-1-1-1-1-1-1-1-1-|-6--6-6-6-6-6-6-6-6-6-6-6--|
|-2--2-2-2-2-2-2-2-2-2-2-2-|-6--6-6-6-6-6-6-6-6-6-6-6--|
|-2--2-2-2-2-2-2-2-2-2-2-2-|-4--4-4-4-4-4-4-4-4-4-4-4--|
|-0--0-0-0-0-0-0-0-0-0-0-0-|---------------------------|


                                            Gtrs I, II
  E. S E S S S S S S S S S S   W            E. S E S S S S E S S S S
|-2--2-2-2-2-2-2-2-2-2-2-2-2-|-5--------||--0--0-0-0-0-0-0-0-0-0-0-0--|
|-4--4-4-4-4-4-4-4-4-4-4-4-4-|-5--------||o-0--0-0-0-0-0-0-0-0-0-0-0--|
|-4--4-4-4-4-4-4-4-4-4-4-4-4-|-6--------||--1--1-1-1-1-1-1-1-1-1-1-1--|
|-4--4-4-4-4-4-4-4-4-4-4-4-4-|-7--------||--2--2-2-2-2-2-2-2-2-2-2-2--|
|-2--2-2-2-2-2-2-2-2-2-2-2-2-|-7--------||o-2--2-2-2-2-2-2-2-2-2-2-2--|
|----------------------------|-5--------||--0--0-0-0-0-0-0-0-0-0-0-0--|


  E. S E S S S S E S S S S   E. S E S S S S S S S S S S
|-2--2-2-2-2-2-2-2-2-2-2-2-|-4--4-4-4-4-2-2-2-2-2-2-2-2-|
|-4--4-4-4-4-4-4-4-4-4-4-4-|-5--5-5-5-5-4-4-4-4-4-4-4-4-|
|-4--4-4-4-4-4-4-4-4-4-4-4-|-6--6-6-6-6-4-4-4-4-4-4-4-4-|
|-4--4-4-4-4-4-4-4-4-4-4-4-|-6--6-6-6-6-4-4-4-4-4-4-4-4-|
|-2--2-2-2-2-2-2-2-2-2-2-2-|-4--4-4-4-4-2-2-2-2-2-2-2-2-|
|--------------------------|----------------------------|


  E. S E S S S S S S S S S S
|-5--5-5-5-5-----------------|
|-5--5-5-5-5-7-7-7-7-7-7-7-7-|
|-6--6-6-6-6-8-8-8-8-8-8-8-8-|
|-7--7-7-7-7-9-9-9-9-9-9-9-9-|
|-7--7-7-7-7-9-9-9-9-9-9-9-9-|
|-5--5-5-5-5-7-7-7-7-7-7-7-7-|


  E. S E S S S S E S S S S   E. S E S S S S E S S S S
|-0--0-0-0-0-0-0-0-0-0-0-0-|-2--2-2-2-2-2-2-2-2-2-2-2--|
|-0--0-0-0-0-0-0-0-0-0-0-0-|-4--4-4-4-4-4-4-4-4-4-4-4--|
|-1--1-1-1-1-1-1-1-1-1-1-1-|-4--4-4-4-4-4-4-4-4-4-4-4--|
|-2--2-2-2-2-2-2-2-2-2-2-2-|-4--4-4-4-4-4-4-4-4-4-4-4--|
|-2--2-2-2-2-2-2-2-2-2-2-2-|-2--2-2-2-2-2-2-2-2-2-2-2--|
|-0--0-0-0-0-0-0-0-0-0-0-0-|---------------------------|


  E. S E S S S S S S S S S S   E. S E S S S S S S S S S S
|-4--4-4-4-4-2-2-2-2-2-2-2-2-|-0--0-0-0-0-0-0-0-0-0-0-0-0-|
|-5--5-5-5-5-4-4-4-4-4-4-4-4-|-0--0-0-0-0-0-0-0-0-0-0-0-0-|
|-6--6-6-6-6-4-4-4-4-4-4-4-4-|-3--3-3-3-3-3-3-3-3-3-3-3-3-|
|-6--6-6-6-6-4-4-4-4-4-4-4-4-|-4--4-4-4-4-4-4-4-4-4-4-4-4-|
|-4--4-4-4-4-2-2-2-2-2-2-2-2-|-4--4-4-4-4-4-4-4-4-4-4-4-4-|
|----------------------------|-2--2-2-2-2-2-2-2-2-2-2-2-2-|


                              1.
  E. S E S S S S S S S S S S   E. S E S S S S E S S S S
|-5--5-5-5-5-----------------|-0--0-0-0-0-0-0-0-0-0-0-0--||
|-5--5-5-5-5-7-7-7-7-7-7-7-7-|-0--0-0-0-0-0-0-0-0-0-0-0-o||
|-6--6-6-6-6-8-8-8-8-8-8-8-8-|-1--1-1-1-1-1-1-1-1-1-1-1--||
|-7--7-7-7-7-9-9-9-9-9-9-9-9-|-2--2-2-2-2-2-2-2-2-2-2-2--||
|-7--7-7-7-7-9-9-9-9-9-9-9-9-|-2--2-2-2-2-2-2-2-2-2-2-2-o||
|-5--5-5-5-5-7-7-7-7-7-7-7-7-|-0--0-0-0-0-0-0-0-0-0-0-0--||


  2.
  E. S E S S S S S S S S S S   E. S E S S S S S S S S S S
|-5--5-5-5-5-----------------|-5--5-5-5-5-----------------|
|-5--5-5-5-5-7-7-7-7-7-7-7-7-|-5--5-5-5-5-7-7-7-7-7-7-7-7-|
|-6--6-6-6-6-8-8-8-8-8-8-8-8-|-6--6-6-6-6-8-8-8-8-8-8-8-8-|
|-7--7-7-7-7-9-9-9-9-9-9-9-9-|-7--7-7-7-7-9-9-9-9-9-9-9-9-|
|-7--7-7-7-7-9-9-9-9-9-9-9-9-|-7--7-7-7-7-9-9-9-9-9-9-9-9-|
|-5--5-5-5-5-7-7-7-7-7-7-7-7-|-5--5-5-5-5-7-7-7-7-7-7-7-7-|


                             Outro
                              Gtr II
  E. S E S S S S E S S S S    E. S E S S S S E S S S S
|-0--0-0-0-0-0-0-0-0-0-0-0-||-4--4-4-4-4-4-4-4-4-4-4-4-|
|-0--0-0-0-0-0-0-0-0-0-0-0-||-5--5-5-5-5-5-5-5-5-5-5-5-|
|-1--1-1-1-1-1-1-1-1-1-1-1-||-6--6-6-6-6-6-6-6-6-6-6-6-|
|-2--2-2-2-2-2-2-2-2-2-2-2-||-6--6-6-6-6-6-6-6-6-6-6-6-|
|-2--2-2-2-2-2-2-2-2-2-2-2-||-4--4-4-4-4-4-4-4-4-4-4-4-|
|-0--0-0-0-0-0-0-0-0-0-0-0-||--------------------------|


  E. S E S S S S E S S S S   W (fermenta)
|-2--2-2-2-2-2-2-2-2-2-2-2-|-5----*|
|-4--4-4-4-4-4-4-4-4-4-4-4-|-5----*|
|-4--4-4-4-4-4-4-4-4-4-4-4-|-6----*|
|-4--4-4-4-4-4-4-4-4-4-4-4-|-7----*|
|-2--2-2-2-2-2-2-2-2-2-2-2-|-7----*|
|--------------------------|-5----*|