Hilary Duff - Our Lips Our Sealed Chords & Tabs

 

Our Lips Our Sealed Chords & Tabs

Hilary Duff Chords & Tabs

Version: 1 Type: Bass Tab 0 ratings
1 star 2 stars 3 stars 4 stars 5 stars
comments

Our Lips Our Sealed Bass Tab

G------------------------------------------------------------------------|
D-------6---3----------4--1----------------------------------------------|
A--------------6-------------4---3-4...------------------4-4-3-3-1-1-1-1-|
E----4--------------2----------------------------------------------------|
[ Tab from: http://www.guitartabs.cc/tabs/h/hilary_duff/our_lips_our_sealed_btab.html ]
G------------------------------------------------------------------------|
D------------------------------------------------------------------------|
A---7-7-7-9-7----4-4-4-6-4---------6...------------4...------------------|
E-----------------------------5...----------4...---------4...------------|

G-------13-12-13-12--------|
D--------------------13----|
A--11----------------------|
E--------------------------|
Comments