Hilary Duff - Mr James Dean Chords & Tabs

 

Mr James Dean Chords & Tabs

Hilary Duff Chords & Tabs

Version: 1 Type: Tab 0 ratings
1 star 2 stars 3 stars 4 stars 5 stars
comments

Mr James Dean Tab

   
		Mr.James Dean - Hilary Duff

Tabbed by: b_real2004
Email:chunkylover53z@hotmail.com


Tuning: standard  EADGBe

e|--10--9---10--------------10-p-7--------7-/-5------------------------------|
B|---------------------------------------------------------------------------|
G|----------------------------------------------------------999999999999-----|
D|----------------------------------------------------------999999999999-----|
A|----------------------------------------------------------777777777777-----|
E|---------------------------------------------------------------------------|

       play top riff over and over - followed by E5 into chorus

e|--------------------------------------------------------------------------|
B|--------------------------------------------------------------------------|
G|-44444444444--77777777777---------------------99----9b-----99----9b-------|
D|-44444444444--77777777777--7777777777777------99-----------99-------------|
A|-22222222222--55555555555--7777777777777------77-----------77-------------|
E|---------------------------5555555555555----------------------------------|

        Chorus - distortion + whammy/wah on high e notes
[ Tab from: http://www.guitartabs.cc/tabs/h/hilary_duff/mr_james_dean_tab.html ]
e|--------------------------------------------------------------------------|
B|--------------------------------------------------------------------------|
G|--4-~~~~~~~~-----7-~~~~~~~------------------------------------------------|
D|--4-~~~~~~~~-----7-~~~~~~~-------7-~~~~~~~~-------7-~~~~~~~~~-------------|
A|--2-~~~~~~~~-----5-~~~~~~~-------7-~~~~~~~~-------7-~~~~~~~~~-------------|
E|---------------------------------5-~~~~~~~~-----/-4-~~~~~~~~~-------------|

           Breakdown - clean, hold chords for 1 bar each


- Repeat verse
- Repeat Chorus


e|--------------------------------------------------------------------------|
B|--------------------------------------------------------------------------|
G|--44444444----77777777-----999999999---999999999--------------------------|
D|--44444444----77777777-----999999999---999999999--------------------------|
A|--22222222----55555555-----777777777---777777777--------------------------|
E|--------------------------------------------------------------------------|

            Verse 2 - distorted

e|--------------------------------------------------------------------------|
B|--------------------------------------------------------------------------|
G|---444-4-4-2----------7-7-7-----4--2--------444-4-4-2--------999-9-9-7----|
D|---------------4-----------------------4----------------4---------------9-|
A|--------------------------------------------------------------------------|
E|--------------------------------------------------------------------------|

  Solo base - improvise in E


| /  slide up
| \  slide down
| h  hammer-on
| p  pull-off
| ~  vibrato
| +  harmonic
| x  Mute note
===============================================================================
Comments