Hilary Duff - Fly Chords & Tabs

 

Fly Chords & Tabs

Hilary Duff Chords & Tabs

Version: 2 Type: Tab 0 ratings
1 star 2 stars 3 stars 4 stars 5 stars
comments

Fly Tab

   
-------------------------------------------------------------------------------
			     FLY - Hilary Duff
-------------------------------------------------------------------------------

Tabbed by: Marc Belanger
Email: belang46@msu.edu

Tuning: Standard

Note:
This song kicks so much ass I can't help it.  There weren't any tabs out so this
should be the first one..if you think it 

sucks e-mail me.  This is fairly simple as far as I can hear, the main verse riff
sounds like some digital piano or something 

but can be played on guitar to an extent. 



Intro/Verse (some chorus effect)

"In a moment, everything can change" 

e-7-----7---7------7-----8-------8------7----5s3h5---------------|
b-5--5----------5------5-----5------5----------------------------|
g----------------------------------------------------------------|
d----------------------------------------------------------------|
a----------------------------------------------------------------|
e----------------------------------------------------------------|

(*Repeat that three times, listen for the timing.  After that, there is a
slight variation in that riff, as shown below which 

holds true for the rest of the song.)



Main Verse (some chorus effect)

e---7-----7---7------5h7---8-------8------7----5s3h5-------------|
b---5--5----------5------------5------5--------------------------|
g----------------------------------------------------------------|
d----------------------------------------------------------------|
a----------------------------------------------------------------|
e----------------------------------------------------------------|




Pre Chorus (w/distortion)

"Can you hear it calling, can you feel it in your soul"

    
e----------------------------------------------------------------|
b----------------------------------------------------------------|
g---5----------7----------5----------7---------------------------|
d---5----------7----------5----------7---------------------------|
a---3----------5----------3----------5---------------------------|
e----------------------------------------------------------------|

(*Let the chords ring)




Chorus (w/distortion)
[ Tab from: http://www.guitartabs.cc/tabs/h/hilary_duff/fly_tab_ver_2.html ]
   Em         G          D          D
e------------------------5----------5---------------------------|
b---8--------------------5----------5---------------------------|
g---9---------4----------7----------7---------------------------|
d---9---------5----------7----------7---------------------------|
a---7---------5----------5----------5---------------------------|
e---0---------3-------------------------------------------------|

**This repeats 2 times... then...




End Chorus

   Em    G    D    D    C    D    C    D
e-------------5----5-------------------------------------------|
b---8---------5----5-------------------------------------------|
g---9----4----7----7----5----7----5----7-----------------------|
d---9----5----7----7----5----7----5----7-----------------------|
a---7----5----5----5----3----5----3----5-----------------------|
e---0----3-----------------------------------------------------|





End Chorus (2)

   Em    G    D    D    C    D    
e-------------5----5-------------------------------------------|
b---8---------5----5-------------------------------------------|
g---9----4----7----7----5----7---------------------------------|
d---9----5----7----7----5----7---------------------------------|
a---7----5----5----5----3----5---------------------------------|
e---0----3-----------------------------------------------------|





Bridge

    C    G        Em     B    C   G   D
e-----------------------------------------------------|
b-----------------------------------------------------|
g---5----4---------------4----5-------7---------------|
d---5----5---------2-----4----5---5---7---------------|
a---3----5---------2-----2-/s-3---5---5---------------|
e--------3---2h3p2p0--------------3-------------------|

*This happens twice.  listen for the timing.





End Chord
   Em       
e--------|
b---8----|
g---9----|
d---9----|
a---7----|
e---0----|




**Now i'll break it down by the parts i've labeled.**

Intro/Verse 3x
Main Verse  2x
Pre Chorus
Chorus 2x
End Chorus
Intro/Verse 1x
Pause
Main Verse 4x
Pre Chorus
Chorus 2x
End Chorus
Bridge 2x
Main Verse 4x
Chorus 2x
End Chorus (2) 1x
End Chorus
Main Verse 2x
End Chord (just an Em)




If you think this tab is extremely inaccurate, e-mail me your corrections and name
so i can give you credit.  Thanks.

-Marc
Comments