Hilary Duff - Crash World Chords & Tabs

 

Crash World Chords & Tabs

Hilary Duff Chords & Tabs

Version: 1 Type: Tab 0 ratings
1 star 2 stars 3 stars 4 stars 5 stars
comments

Crash World Tab

VERSE 1:
e-x-x-x-x-x-x-x-x-x-x-x-x-x-x-x-x-x-x-x-x-x-x-x-x-x-x-x-x-x-x------|
b-x-x-x-x-x-x-x-x-x-x-x-x-x-x-x-x-x-x-x-x-x-x-x-x-x-x-x-x-x-x------|
g-x-x-x-x-x-x-x-x-x-x-x-x-x-x-x-x-x-x-x-x-x-x-x-x-x-x-x-x-x-x------|
d-7-7-7-7-7-7-7-7-7-7-7-7-7-7-7-7-7-7-7-7-7-7-7-7-7-7-7-7-7-7------|
a-7-7-7-7-7-7-7-7-7-7-7-7-7-7-7-7-7-7-7-7-7-7-7-7-7-7-7-7-7-7------|
E-5-5-5-5-5-5-5-5-5-5-5-5-5-5-5-5-5-5-5-5-5-5-5-5-5-5-5-5-5-5------|
[ Tab from: http://www.guitartabs.cc/tabs/h/hilary_duff/crash_world_tab.html ]
e-x-x-x-x-x-x-x-x-x-x-x-x-x-x-x-x-x-x-x-x-x-x-x-x-x-x-x-x-x-x------|
b-x-x-x-x-x-x-x-x-x-x-x-x-x-x-x-x-x-x-x-x-x-x-x-x-x-x-x-x-x-x------|
g-x-x-x-x-x-x-x-x-x-x-x-x-x-x-x-x-x-x-x-x-x-x-x-x-x-x-x-x-x-x------|
d-3-3-3-3-3-3-3-3-3-3-3-3-3-3-3-3-3-3-3-3-3-3-3-3-3-3-3-3-3-3------|
a-3-3-3-3-3-3-3-3-3-3-3-3-3-3-3-3-3-3-3-3-3-3-3-3-3-3-3-3-3-3------|
E-1-1-1-1-1-1-1-1-1-1-1-1-1-1-1-1-1-1-1-1-1-1-1-1-1-1-1-1-1-1------|
repeat 1x
pre-chorus: ( someone save me. . . )
e-------------------------------------------------------------------|
b-------------------------------------------------------------------|
g-------------------------------------------------------------------|
d-7-7-------7-7-----------------------------------------------------|
a-7-7-------7-7-----------------------------------------------------|
E-5-5-------5-5-----------------------------------------------------|

chorus: ( go on get out of my head. . . )
e--------------------------------------------------------------------|
b--------------------------------------------------------------------|
g-------------------5-5-5-5------------------------------------------|
d-7-7-7-7--3-3-3-3--5-5-5-5--5-5-5-5---------------------------------|
a-7-7-7-7--3-3-3-3--3-3-3-3--5-5-5-5---------------------------------|
E-5-5-5-5--1-1-1-1-----------3-3-3-3---------------------------------|
repeat 2x
e--------------------------------------------------------------------|
b--------------------------------------------------------------------|
g-7-7-7-7-7-7-7-7----------------------------------------------------|
d-7-7-7-7-7-7-7-7--3-3-3-3-3-----------------------------------------|
a-5-5-5-5-5-5-5-5--3-3-3-3-3-----------------------------------------|
E------------------1-1-1-1-1-----------------------------------------|

Verse 2 (same as vwese 1)
chorus

This is my first tab its pretty accurate if you have any queries then just email me 
ENJOY!!!
Comments