Hilary Duff - Come Clean Chords & Tabs

 

Come Clean Chords & Tabs

Hilary Duff Chords & Tabs

Version: 2 Type: Tab 0 ratings
1 star 2 stars 3 stars 4 stars 5 stars
comments

Come Clean Tab

   
yeah thats right im asian
here its goes
tuning is standard.
twist_bling@hotmail.com


EVERYTHINH IS DISTORTED

(the intro is mostly all on chord e (the last string at the
bottom))
Intro/Main Riff:

1st guitar
e|-----7--7-6-4-6--   keep going till the chrous comes.

2nd guitar
e|---4--6--7--4--7--6--4--6--2---
                                         
e|---4--6--7--4--7--6--4--6--9---

e|---4--6--7--4--7--6--4--6--2---

e|---4--6--7--4--7--6--4--6--9

e|---4--6--7--4--7--6--4--6--2---
[ Tab from: http://www.guitartabs.cc/tabs/h/hilary_duff/come_clean_tab_ver_2.html ]
e|---4--6--7--4--7--6--4--6--9----1--3--2--1
 
just let 1st guitar keep going to chrous
Chrous (plz use distortion):
e---------------------------------|---------------------------------|
B---------------------------------|---------------------------------|
G-----------------5-5-5-5---------|-----------------5-5-5-5-7-7-7-7-|
D-7-7-7-7-3-3-3-3-5-5-5-5-5-5-5-5-|-7-7-7-7-3-3-3-3-5-5-5-5-7-7-7-7-| 2x
A-7-7-7-7-3-3-3-3-3-3-3-3-5-5-5-5-|-7-7-7-7-3-3-3-3-3-3-3-3-5-5-5-5-|
E-5-5-5-5-1-1-1-1---------3-3-3-3-|-5-5-5-5-1-1-1-1-----------------|
end the
chorus off wen hilary says coming clean as

c#m     bm
im coming clean

Verse 2:
1st guitar
e|-----10--10-9-7-9---   keep going till the chrous comes.

solo starts when she says "cuz different didnt feel so different".
2nd guitar
e|----14--14/11-11\14--14--14\17-17\14 do this twice

Chrous (distortion)

then at the bride let the 1st guitar and second guitar go:
1st guitar
e|-----10--10-9-7-9---   

let chrous lead to 
bridge.

this let e|---9--- ring.

then ur done.
holla at me if theres a problem
twist_bling@hotmail.com
Comments