Hilary Duff - Come Clean Chords & Tabs

 

Come Clean Chords & Tabs

Hilary Duff Chords & Tabs

Version: 1 Type: Tab 0 ratings
1 star 2 stars 3 stars 4 stars 5 stars
comments

Come Clean Tab

   
Hilary Duff - Come Clean
Guitar Tab
Down  Step
Tabbed by Mark P
www.revolutionofthevoid.tk

Intro/Main Riff (clean w/chorus)

e-----8---7---7h8---------------------------------------------|
b-------------------------------------------------------------|
g---9---9---9-------------------------------------------------|
d-7-----------------------------------------------------------|
a-------------------------------------------------------------|
e-------------------------------------------------------------|

Chorus (dist)

e---------------------------------|---------------------------------|
b---------------------------------|---------------------------------|
g-----------------5-5-5-5---------|-----------------5-5-5-5-7-7-7-7-|
d-7-7-7-7-3-3-3-3-5-5-5-5-5-5-5-5-|-7-7-7-7-3-3-3-3-5-5-5-5-7-7-7-7-|
a-7-7-7-7-3-3-3-3-3-3-3-3-5-5-5-5-|-7-7-7-7-3-3-3-3-3-3-3-3-5-5-5-5-|
e-5-5-5-5-1-1-1-1---------3-3-3-3-|-5-5-5-5-1-1-1-1-----------------|

Main Riff

Verse 2
[ Tab from: http://www.guitartabs.cc/tabs/h/hilary_duff/come_clean_tab.html ]
e-------------------|-----------------------1~-|-2-2-2-2-2-2-2-2-|
b-----1~---------1~-|------1~-------------1~---|-3-3-3-3-3-3-3-3-|
g---2~---------2~---|----2~--------0~----------|-2-2-2-2-2-2-2-2-|
d-2~---------3~-----|--2~--------2~-----3~-----|-0-0-0-0-0-0-0-0-|
a-------------------|----------3~--------------|-----------------|
e-------------------|------------------------x2|-----------------|
                                                 Add this 2nd time

Chorus

Interlude (chorus)

  Am   C    F    d

e-0~---0~---1~---2~-------------------------------------------|
b-1~---1~---1~---3~-------------------------------------------|
g-2~---0~---2~---2~-------------------------------------------|
d-2~---2~---3~---0~-------------------------------------------|
a-0~---3~---3~---0~-------------------------------------------|
E-----------1~------------------------------------------------|

Bridge

No guitar except an F chord at the end

Chorus

Main Riff

End on F
Comments