Hilary Duff - Beat Of My Heat Chords & Tabs

 

Beat Of My Heat Chords & Tabs

Hilary Duff Chords & Tabs

Version: 1 Type: Bass Tab

Beat Of My Heat Bass Tab

   
BEAT OF MY HEART-  <3 Hilary Duff <3
Tabbed by, Joel Laramay
~~~~~~~~~~~~~~~~~~~~~~~~~~~~

***This song follows the guitar part...I'm working on the REAL bass part***

[*VERSE P1*]
(pick w/PM)
G|---------|X2|---------|X2|---------|X2|---------|X2| (X2)
D|---------|X2|---------|X2|---------|X2|---------|X2| (X2)
A|-9-9-9-9-|X2|-8-8-8-8-|X2|-6-6-6-6-|X2|-2-2-2-2-|X2| (X2)
E|---------|X2|---------|X2|---------|X2|---------|X2| (X2)


[*VERSE P2*]
(pick w/PM)
G|------------|------------|------------|------------|
D|------------|------------|------------|------------|
A|-9--99-99-9-|-8--88-88-8-|-6--66-66-6-|-2--22-22-2-|
E|------------|------------|------------|------------|
[ Tab from: http://www.guitartabs.cc/tabs/h/hilary_duff/beat_of_my_heat_btab.html ]
G|------------|------------|------------|------|
D|------------|------------|------------|------|
A|-9--99-99-9-|-8--88-88-8-|-6--66-66-6-|--2*--|
E|------------|------------|------------(finger)


[*CHORUS*]
G|---------|X2|---------|X2|---------|X2|---------|X2| (X2)
D|---------|X2|---------|X2|---------|X2|---------|X2| (X2)
A|-9-9-9-9-|X2|-8-8-8-8-|X2|-6-6-6-6-|X2|-2-2-2-2-|X2| (X2)
E|---------|X2|---------|X2|---------|X2|---------|X2| (X2)

G|----|------------------|
D|----|------------------|
A|-/9-|------------------|
E|----|-7--77--7--77--/0-|


[*BRIDGE*] (close???)
G|-------------|X2|---------------|-------------|
D|-------------|X2|---------------|-------------|
A|-------------|X2|----55-44--1-0-|--55--44-1-0-|
E|-11-22-44-55-|X2|-00------------|-------------|