Hikaru Utada - Hear Me Cry Chords & Tabs

 

Hear Me Cry Chords & Tabs

Hikaru Utada Chords & Tabs

Version: 1 Type: Tab 0 ratings
1 star 2 stars 3 stars 4 stars 5 stars
comments

Hear Me Cry Tab

Hear Me Cry
by Utada Hikaru

Tabba - Jake Chen


From the Japanese soap, "Long Vacation". 
Questions & Comments to darc_blade@hotmail.com

[ Tab from: http://www.guitartabs.cc/tabs/h/hikaru_utada/hear_me_cry_tab.html ]
E|-7---7----5--3-----3-3--2h3-2-------|
B|--5---5----3---3---------------3--0-|
G|---0---0---------0---------------2--|
D|------------------------0-----------|
A|-3---3----2--------3----------------|
E|-------------0-----------------3----|

E|-7---7----5--3-----3-3--2h3/5--3----|
B|--5---5----3---3------------------0-|
G|---0---0---------0---------------2--|
D|------------------------0-----------|
A|-3---3----2--------3----------------|
E|-------------0-----------------3----|
Comments