Hikaru Utada - First Love Chords & Tabs

 

First Love Chords & Tabs

Hikaru Utada Chords & Tabs

Version: 1 Type: Tab 0 ratings
1 star 2 stars 3 stars 4 stars 5 stars
comments

First Love Tab

   
Intro
  E       B       C#m        B   
e[--------------------------------]
B[-5-4-2-0---2-----5-4-2-0--------]
G[---------4---------------4/5-5--]
D[--------------------------------]
A[--------------------------------]
E[--------------------------------]
           A             B     E
e[--------------------------------]
B[-5-4----------------------------]
G[-----1/4-1-2-------------4/5-5--]
D[-------------4---2-1-2-2--------]
A[--------------------------------]
E[--------------------------------]

Verse 1:
E          B
Once in a while
               C#m
You are in my mind
                   B 
I think about the days that we had
    A                         B                E 
And I dream that these would all come back to me


Pre-Chorus 1:
   C#m                 B
If only you knew every moment in time
  A                      B
Nothing goes on in my heart
Just like your memories
C#m                B
How I want here to be with you
      A         B
Once more

[ Tab from: http://www.guitartabs.cc/tabs/h/hikaru_utada/first_love_tab.html ]
Chorus 1:
E                     B
You will always gonna be the one
                 C#m
And you should know
                         B             A
How I wish I could have never let you go
                   B
Come into my life again
              E
Oh, don't say no
You will always gonna be the one in my life
So true, I believe i can never find
Somebody like you 
my first love

Interlude:
  E       B      C#m        A   
e[--------------------------------]
B[-2-0-5--2-0-5--2-0-5-2----------]
G[-------------------------1/2----]
D[--------------------------------]
A[--------------------------------]
E[--------------------------------]
          A      B    E
e[-----4--5-4--2----2-------------]
B[-2-5-----------5----5-----------]
G[--------------------------------]
D[--------------------------------]
A[--------------------------------]
E[--------------------------------]

Verse 2:
Once in awhile
Your are in my dreams
I can feel the warmth in your embrace
And I pray that it will all come back to me

Pre-Chorus 2:

Chorus 2:

Chorus 3:
You will always gonna be the one
And you should know
How I wish I could have never let you go
Come into my life again
Oh, don't say no
You will always gonna be the one
So true, I believe I could never find
Now and forever 

Outro (same as Intro)
Comments