High Voltage - Danger Chords & Tabs

 

Danger Chords & Tabs

High Voltage Chords & Tabs

Version: 1 Type: Bass Tab 0 ratings
1 star 2 stars 3 stars 4 stars 5 stars
comments

Danger Bass Tab

   
       High Voltage
          Danger
       Tab by Shit face
          Smolik251@aol.com

                       Standard tuning
[ Tab from: http://www.guitartabs.cc/tabs/h/high_voltage/danger_btab.html ]
            Beginning:
     g-------------------------------------------
     d-------------------------------------------
     a---5-5-5-5-5-5-5-5-5-5-5-5-5-5-5-5-5-5-5-5-5
     e-------------------------------------------
                
             Verse 1:
     g-------------------------------------------
     d-------------------------------------------
     a-7-7-7-7-7-7-7-7-5-5-5-5-5-5-5-5-3-3-3-3-3-3
     e-------------------------------------------
              Verse 1 continued
     g-------------------------------------------
     d-------------------------------------------
     a-3-3-5-5-5-5-5-5-5-5-7-7-7-7-7-7-7-7-------
     e-------------------------------------------
                 Play 5 times
            Verse 2:
     g-------------------------------------------
     d------------3-3-3-5-5-5--------------------
     a-5-5-5-3-3-3-------------------------------
     e-------------------------------------------
                  play 7 times then end with
     g-------------------------------------------
     d-7-7-7-7-7-7-7-7-7-------------------------
     a-------------------------------------------
     e-------------------------------------------
                      Choras:
     g-------------------------------------------
     d-------------------------------------------
     a-11-11-11-11-11-9-9-9-14-14-14-------------
     e-------------------------------------------
                    Play 4 times
                   Verse 3:
     g-------------------------------------------
     d-------------------------------------------
     a-7-7-7------9-9-9--------------------------
     e-------5-5-5------7-7-7--------------------
                      play 5 times

                  during guitar solo
     g-------------------------------------------
     d-------------------------------------------
     a---------3-3-3-3--5-5-5-5------------------
     e-0-0-0-0------------------3-3-3-3----------
                     play 3 times
                   ending:
     g-2-3---------------------------------------
     d----2-3------------------------------------
     a-------2-3---------------------------------
     e----------3-3-3-3-3-5----------------------
                   play 6 times then fade out

                       good bye
Comments