High School Musical - Stick To The Status Quo Chords & Tabs

 

Stick To The Status Quo Chords & Tabs

High School Musical Chords & Tabs

Version: 1 Type: Tab

Stick To The Status Quo Tab

   
-----------------------------------------------------------------
STICK TO THE STATUS QUO - High School Musical
-----------------------------------------------------------------
Tabbed by: flyinghawk


I KNOW it's an old song, but it has a decent, simple, easy solo.

Tuning: Standard


e|---------------------------------------------------------------------------|
B|--/13--13--12-------/13--13--12-----/15------/17--17--13-------------------|
G|---------------12----------------12-----------------------12b--------------|
D|---------------------------------------------------------------------------|
A|---------------------------------------------------------------------------|
E|---------------------------------------------------------------------------|
[ Tab from: http://www.guitartabs.cc/tabs/h/high_school_musical/stick_to_the_status_quo_tab.html ]
e|-----------------15--------13---------------13---12------------------------|
B|---/17--13---------------------16-----15\----------------------------------|
G|------------12-----------12------------------------------------------------|
D|---------------------------------------------------------------------------|
A|---------------------------------------------------------------------------|
E|---------------------------------------------------------------------------|

e|---15--14--16--15--17--16---18-18-18-17\-----------------------------------|
B|---------------------------------------------------------------------------|
G|---------------------------------------------------------------------------|
D|---------------------------------------------------------------------------|
A|---------------------------------------------------------------------------|
E|---------------------------------------------------------------------------|


************************************

| /   slide up
| \   slide down
| h   hammer-on
| p   pull-off
| ~   vibrato
| +   harmonic
| x   Mute note
| b   Bend
| pb  Pre-bend
| br  Bend release
| pbr Pre-bend release
| brb Bend release bend

************************************