High On Fire - Eyes And Teeth Chords & Tabs

 

Eyes And Teeth Chords & Tabs

High On Fire Chords & Tabs

Version: 1 Type: Tab 0 ratings
1 star 2 stars 3 stars 4 stars 5 stars
comments

Eyes And Teeth Tab

   
-------------------------------------------------------------------------------
			     Eyes & Teeth - High on Fire
-------------------------------------------------------------------------------

This song is the lead track from High on Fire's second album, "Surrounded by Thieves".
High on Fire is the latest project from former Sleep guitarist Matt Pike.  The solo is 
just a guideline as Matt's solos tend to be fairly abstract. Visit highonfire.net for
more info on this great HEAVY band. Enjoy!

Tuning:Dropped-D tuning, down one whole step

  (1st time) Riff A
d|----------I-----------------------------------------------------------------|
A|----------I-----------------------------------------------------------------|
F|----------I-----------------------------------------------------------------|
C|----------I-----------------------------------------------------------------|
G|-63-106-I-/12--12--12-12--12--12-12--12--12-12p0h12p0-12p0h12p0-12--12--12-
C|-63-106-I-/12--12--12-12--12--12-12--12--12-12p0h12p0-12p0h12p0-12--12--12|

d|---------------------------------------------------------------------------|
A|---------------------------------------------------------------------------|
F|---------------------------------------------------------------------------|
C|---------------------------------------------------------------------------|
G|-12--12--12-12--12--12-12p0-0-0-12p0-0-0--6--6--6-6--6--6-6--6--6--63-106|
C|-12--12--12-12--12--12-12p0-0-0-12p0-0-0--6--6--6-6--6--6-6--6--6--63-106|

d|-------------------------------------------------------|
A|-------------------------------------------------------|
F|-------------------------------------------------------|
C|-------------------------------------------------------|
G|-12--12--12-12--12--12-12--12--12-12p0h12p0-12p0h12p0--|
C|-12--12--12-12--12--12-12--12--12-12p0h12p0-12p0h12p0--|

  Riff B
d|--------------------------------------------------|
A|--------------------------------------------------|
F|--------------------------------------------------|
C|--------------------------------------------------|
G|-12-10-10~--12-10-10~--12-10-10~--12-10-10~-106--|
C|-12-10-10~--12-10-10~--12-10-10~--12-10-10~-106--|

(Bass Break)

  Solo   T     T    T      T     T     T     
d|---------------------------------------------------------------------------|
A|---------------------------------------------------------------------------|
F|-14~~-17-14-17-14-17-14-17-14-17-14-17-14--17-17-17-14-14-14-17-17-17-14-14|
C|---------------------------------------------------------------------------|
G|---------------------------------------------------------------------------|
C|---------------------------------------------------------------------------|

d|---------------------------------------------------------------------------|
A|---------------------------------------------------------------------------|
F|-14-17-17-17-14-14-14-14-14-14-12-12-12-10-10-10-7-7-7-5-5-5---------------|
C|-------------------------------------------------------------7-7-5-5-------|
G|---------------------------------------------------------------------8-8-7-|
C|---------------------------------------------------------------------------|

d|---------------------------------------------------------------------------|
A|---------------------------------------------------------------------------|
F|------------------------------------------5-5-5-7-7-7-10-10-10-12-12-14~~--|
C|-----------------------------5-5-5-7-7-7-----------------------------------|
G|-7-5~~~~~~---5-5-5-7-7-7-8-8-----------------------------------------------|
C|---------------------------------------------------------------------------|

d|-17-17-17-15-15-15-17-13-13-13-15-15-15-13-13-10-10-10-5-5-5-8^~~~---------|
A|---------------------------------------------------------------------------|
F|---------------------------------------------------------------------------|
C|---------------------------------------------------------------------------|
G|---------------------------------------------------------------------------|
C|---------------------------------------------------------------------------|
[ Tab from: http://www.guitartabs.cc/tabs/h/high_on_fire/eyes_and_teeth_tab.html ]
d|-10-10-10-8-8-8-5-5-5-8-8-8-3-3-3-5-5-10-10-10-8-8-8-5-5-8~~~~-------------|
A|---------------------------------------------------------------------------|
F|---------------------------------------------------------------------------|
C|---------------------------------------------------------------------------|
G|---------------------------------------------------------------------------|
C|---------------------------------------------------------------------------|

d|---------------------------------------------------------------------------|
A|---------------------------------------------------------------------------|
F|------------------------------5^-----5-5-7-7-10-10-12-14~-17-17-17-14-14-14|
C|--------------------5-5-5-7-7----7-7---------------------------------------|
G|-5~~~~~-7-7-7-8-8-8--------------------------------------------------------|
C|---------------------------------------------------------------------------|

d|--------------------------------------------|
A|--------------------------------------------|
F|-17-17-17-14-14-14-17-17-17-14-14-14-12~~~~-|
C|--------------------------------------------|
G|--------------------------------------------|
C|--------------------------------------------|

  Riff C (Guitar break)
d|---------------------------------------------------------------------------|
A|---------------------------------------------------------------------------|
F|---------------------------------------------------------------------------|
C|---------------------------------------------------------------------------|
G|-12----12----12----12----12----12----12----12----12----12----12----12------|
C|-12p0--12p0--12p0--12p0--12p0--12p0--12p0--12p0--12p0--12p0--12p0--12p0----|

d|---------------------------------------------------------------------------|
A|---------------------------------------------------------------------------|
F|---------------------------------------------------------------------------|
C|---------------------------------------------------------------------------|
G|-10----10-10-10-10-15-12-12---12---12----5-5-5-8-8-8-5-5-5-8-8-8-/-15^-15^-|
C|--0h10-10-10-10-10-15-12-12p0-12p0-12p0--5-5-5-8-8-8-5-5-5-8-8-8-/-15^-15^-|

d|---------------------------------------------------------------------------|
A|---------------------------------------------------------------------------|
F|---------------------------------------------------------------------------|
C|---------------------------------------------------------------------------|
G|-12---12---12---12---12---12---12---12---12---12---12---12---10----10-10---|
C|-12p0-12p0-12p0-12p0-12p0-12p0-12p0-12p0-12p0-12p0-12p0-12p0--0h10-10-10---|

d|---------------------------------------------------------------------------|
A|---------------------------------------------------------------------------|
F|---------------------------------------------------------------------------|
C|---------------------------------------------------------------------------|
G|-10-10-15-12-12---12---12----3h5-5h6-6h8-8p6-12-12---12---12---5h6-6h8-8h10|
C|-10-10-15-12-12p0-12p0-12p0--3h5-5h6-6h8-8p6-12-12p0-12p0-12p0-5h6-6h8-8h10|

d|---------------------------------------------------------------------------|
A|---------------------------------------------------------------------------|
F|---------------------------------------------------------------------------|
C|---------------------------------------------------------------------------|
G|-10h12-12---12---12---3h5-5h6-6h8-8p6-5h6-6h8-8h10-10h12-12-12---12---12---|
C|-10h12-12p0-12p0-12p0-3h5-5h6-6h8-8p6-5h6-6h8-8h10-10h12-12-12p0-12p0-12p0-|

d|---------------------------------------|
A|---------------------------------------|
F|---------------------------------------|
C|---------------------------------------|
G|-12-10-10-9-9-7-7-6-6-7-7-9-9-13-13-12-|
C|-12-10-10-9-9-7-7-6-6-7-7-9-9-13-13-12-|


Song Structure:		Riff A 
			Riff B
			Riff A
			Riff B	
			Short bass break
			Solo
			Riff B
			Riff A
			Riff B
			Riff C


| /  slide up
|   slide down
| h  hammer-on
| p  pull-off
| ~  vibrato
| +  harmonic
| x  Mute note
  T  tap with pick
  ^  bend 1/2 step




fRANC
Comments