High Holy Days - Zoo Baby Rummy Chords & Tabs

 

Zoo Baby Rummy Chords & Tabs

High Holy Days Chords & Tabs

Version: 1 Type: Tab 0 ratings
1 star 2 stars 3 stars 4 stars 5 stars
comments

Zoo Baby Rummy Tab

   
This is a Canadian band, signed on Road Runner Records, with a wicked awesome debut CD. 
----------------------------------------------------------------------------
	                ZOO BABY RUMMY - High Holy Days
----------------------------------------------------------------------------

Tabbed by: Tyler Greig
E-mail: gtheleadguitarist@hotmail.com

Tuning: Drop D

It might be in a different tuning... but i'm too lazy to switch tunings
every time i want to play this. So here ya go.


INTRO 1
e|-------------------------------------------------|
B|-------------------------------------------------|
G|-------------------------------------------------|
D|---9---11---9---------------9---11---9-----------|
A|---------------11-9-7h8v----------------11-9-8v--|
D|-6---6----6---------------6---6----6-------------|x2

INTRO 2
e|-----------------------------------------------------|
B|-----------------------------------------------------|
G|-6-6-4-6--6-4-6--6-6-6------6-6-4-6--6-4-6--6-6-6----|
D|-6-6-4-6--6-4-6--6-6-6-2p0--6-6-4-6--6-4-6--6-6-6-2~-|
A|-4-4-2-4--4-2-4--4-4-4-2p0--4-4-2-4--4-2-4--4-4-4-2~-|
D|-----------------------2p0------------------------2~-|x2

VERSE 1
e|-------------------------------------------------------------|
B|-------------------------------------------------------------|
G|-----------------------------------------------------------6-|
D|-x-x-x----x-x-x----x-x-x-4--4~--4~--4~----44-444-444-444-4-6-|
A|-x-x-x----x-x-x----x-x-x---4~--4~--4~--4~-44-444-444-444-4-4-|
D|-x-x-x----x-x-x----x-x-x--4~--4~--4~--4~--44-444-444-444-4---| x2

PRE-CHORUS BASS FILL
e|---------------|
B|---------------|
G|---------------|
D|---------------|
A|---------------|
D|-11-9-7-5-2-0--|

CHORUS 1
e|-------------------------------------------(-----)|
B|-------------------------------------------(-----)|
G|-6-6-6-6-6-6-6-6--4-4-4-4-4-4-4-4----------(----6)|
D|-6-6-6-6-6-6-6-6--4-4-4-4-4-4-4-4--2/4-2/4-(2/4-6)|
A|-4-4-4-4-4-4-4-4--2-2-2-2-2-2-2-2--2/4-2/4-(2/4-4)|
D|-----------------------------------2/4-2/4-(2/4--)|x4
Don't play the bracketed parts the 4th time.

POST-CHORUS
e|-x-x-x-|
B|-x-x-x-|
G|-x-x-x-|
D|-x-x-x-|
A|-x-x-x-|
D|-x-x-x-|

PRE-VERSE
e|-----------------------------------------------------|
B|-----------------------------------------------------|
G|-6-6-4-6--6-4-6--6-6-6------6-6-4-6--6-4-6--6-6-6----|
D|-6-6-4-6--6-4-6--6-6-6-2p0--6-6-4-6--6-4-6--6-6-6-2~-|
A|-4-4-2-4--4-2-4--4-4-4-2p0--4-4-2-4--4-2-4--4-4-4-2~-|
D|-----------------------2p0------------------------2~-|x2

VERSE 2
e|-------------------------------------------------------------|
B|-------------------------------------------------------------|
G|-----------------------------------------------------------6-|
D|-x-x-x----x-x-x----x-x-x-4--4~--4~--4~----44-444-444-444-4-6-|
A|-x-x-x----x-x-x----x-x-x---4~--4~--4~--4~-44-444-444-444-4-4-|
D|-x-x-x----x-x-x----x-x-x--4~--4~--4~--4~--44-444-444-444-4---| x2
[ Tab from: http://www.guitartabs.cc/tabs/h/high_holy_days/zoo_baby_rummy_tab.html ]
PRE-CHORUS BASS FILL
e|---------------|
B|---------------|
G|---------------|
D|---------------|
A|---------------|
D|-11-9-7-5-2-0--|

CHORUS 2
e|-------------------------------------------(-----)|
B|-------------------------------------------(-----)|
G|-6-6-6-6-6-6-6-6--4-4-4-4-4-4-4-4----------(----6)|
D|-6-6-6-6-6-6-6-6--4-4-4-4-4-4-4-4--2/4-2/4-(2/4-6)|
A|-4-4-4-4-4-4-4-4--2-2-2-2-2-2-2-2--2/4-2/4-(2/4-4)|
D|-----------------------------------2/4-2/4-(2/4--)|x4
Don't play the bracketed parts the 4th time.

POST-CHORUS
e|-x-x-x-|
B|-x-x-x-|
G|-x-x-x-|
D|-x-x-x-|
A|-x-x-x-|
D|-x-x-x-|

BRIDGE 1
e|---------------------------------------------------------------|
B|---------------------------------------------------------------|
G|-6-6--6-6--6-6--6~----6~---6~--6~---6~--6~---6~--6~---6~---6~--|
D|-6-6--6-6--6-6--6~---6~---6~--6~---6~--6~---6~--6~---6~----6~--|
A|-4-4--4-4--4-4--4~--4~--4~---4~--4~---4~--4~---4~--4~------4~--|
D|---------------------------------------------------------------|

BRIDGE 2
e|-------------------------------------------------|
B|-------------------------------------------------|
G|-------------------------------------------------|
D|---9---11---9---------------9---11---9-----------|
A|---------------11-9-7h8v----------------11-9-8v--|
D|-6---6----6---------------6---6----6-------------|x2

CHORUS 3
e|--------------------------------------------------|
B|--------------------------------------------------|
G|-6-6-6-6-6-6-6-6--4-4-4-4-4-4-4-4---------------6-|
D|-6-6-6-6-6-6-6-6--4-4-4-4-4-4-4-4--2/4-2/4--2/4-6-|
A|-4-4-4-4-4-4-4-4--2-2-2-2-2-2-2-2--2/4-2/4--2/4-4-|
D|-----------------------------------2/4-2/4--2/4---|x4

POST-CHORUS
e|-----------------------------------|
B|-----------------------------------|
G|-6--6---4--4--------------------6--|
D|-6--6---4--4--2/4-2/4-x-x-x-2/4-6--|
A|-4--4---2--2--2/4-2/4-x-x-x-2/4-4--|
D|--------------2/4-2/4-x-x-x-2/4----|

SOLO (played over chorus)
e|---------------------------7h8h9p7h8h9p7h8h9p7h8h9p7h9p7h9p7h9-9^--|
B|-----------------5-7-5-2v------------------------------------------|
G|-6-4--11\10--6-4---------------------------------------------------|
D|-x-x---x\-x--x-x---------------------------------------------------|
A|-4-2---9\-8--4-2---------------------------------------------------|
D|-------------------------------------------------------------------|

e|-12-11-9-7----------------|
B|-----------7--------------|
G|-------------6-5v~\-------|
D|--------------(2/4-2/4)---|
A|--------------(2/4-2/4)---|
D|--------------(2/4-2/4)---|
I think there's some extra notes near the end, but I can't make them out. 
This works though, since I usually cut off the solo and play the slides.


ENDING
E|-x-x-x--------------------------------------|
B|-x-x-x--------------------------------------|
G|-x-x-x--------------------------------------|
D|-x-x-x-2/4-4-2/4-4--2/4-4-2/4-4--2/4-4-2/4--|
A|-x-x-x-2/4-4-2/4-4--2/4-4-2/4-4--2/4-4-2/4--|
D|-x-x-x-2/4-4-2/4-4--2/4-4-2/4-4--2/4-4-2/4--|

| /  slide up
| \  slide down
| h  hammer-on
| p  pull-off
| ~  let ring
| +  harmonic
| x  Mute note
============================================================================
Comments