High Holy Days - Situation Chords & Tabs

 

Situation Chords & Tabs

High Holy Days Chords & Tabs

Version: 1 Type: Tab 0 ratings
1 star 2 stars 3 stars 4 stars 5 stars
comments

Situation Tab

   
----------------------------------------------------------------------------
	            THE SITUATION - High Holy Days
----------------------------------------------------------------------------


The Situation- High Holy Days

Tabbed by: Tyler Greig
E-mail: gtheleadguitarist@hotmail.com

DROP D TUNING (I *think* HHD might play all their stuff a 1/2 step down, but for the sake
of my precious, precious time, I'm transcribing it in Drop D.)

Transcribed using the incredible NOTEPAD! Lazy bums and their fancy programs...

And a final note, I'm aware High Holy Days has only one guitarist. Multiple guitar tracks,
people. Multiple guitar tracks.


Intro

 |Guitar 1                                    |
e|--------------------------------------------|
B|--------------------------------------------|
G|-11-x-10-x-8-5h6p5-8-6p5--11-x-10-x-8-5h6-5-|
D|--------------------------------------------|
A|--------------------------------------------|
D|--------------------------------------------| x2 
 |                                            |
 |Guitar 2                                    |
e|--------------------------------------------|
B|--------------------------------------------|
G|--------------------------------------------|
D|--------------------------------------------|
A|--------------------------------------------|
D|-6666666666...(repeat for whole intro)------|


 |Guitar 1 
e|-------------------------------------------------------|
B|-------------------------------------------------------|
G|---------------------4b--------------------------4h6---|
D|-4h66-4h66-4h66-4h66----6-4h66-4h66-4h66-4h66-4h6------|
A|-------------------------------------------------------|
D|-------------------------------------------------------|
 |                                                       |
 |Guitar 2                                               |
e|-------------------------------------------------------|
B|-------------------------------------------------------|
G|-------------------------------------------------------|
D|-------------------------------------------------------|
A|-------------------------------------------------------|
D|--(keep chugging away on the 6 (G#)--------------------|


 |Guitar 1  
e|---------------------------------------------------------|
B|---------------------------------------------------------|
G|---------------------4b----------------------------------|
D|-4h66-4h66-4h66-4h66----6-4h66-4h66-4h66-4h66-4\3--------|
A|--------------------------------------------------6\4----|
D|------------------------------------------------------6--|
 |                                                         |
 |Guitar 2                                                 |
e|---------------------------------------------------------|
B|---------------------------------------------------------|
G|---------------------------------------------------------|
D|---------------------------------------------------------|
A|---------------------------------------------------------|
D|--666666666... (keep going...)---------------------------|


VERSE (I feel pretty incredible...)
 |Guitar 1
e|-------------------------------------------------------|
B|-------------------------------------------------------|
G|-------------------------------------------------------|
D|-666666666666666666666666-4x-4x-4~-6x-6x-6~---xx-xx----|
A|-666666666666666666666666-4x-4x-4~-6x-6x-6~---xx-xx----|
D|-666666666666666666666666-4x-4x-4~-6x-6x-6~---xx-xx----| x2
 |PM.......................                              | 
 |Guitar 2                                               |
e|-------------------------------------------------------|
B|-------------------------/9-7-6-4~---------------------|
G|-5~---------6p5~-------------------5h6-8---------------|
D|-------------------------------------------------------|
A|-------------------------------------------------------|
D|-------------------------------------------------------| x2


PRE-CHORUS
 |Guitar 1      
e|------------------------------------|  |-----------------------------|
B|------------------------------------|  |-----------------------------|
G|-44444444---------------------------|  |-44444444--------------------|
D|-44444444-44444444-6x-6x-6x-6x-6x-6-|  |-44444444-22222222-6~--xx-xx-|
A|-22222222-44444444-6x-6x-6x-6x-6x-6-|  |-22222222-22222222-6~--xx-xx-|
D|----------44444444-6x-6x-6x-6x-6x-6-|x3|----------22222222-6~--xx-xx-|x1
 |                                                                     |
 |Guitar 2 (this part is really soft and hard to hear, but i tried)    |
e|-8--6-5-8--6-5-8--6-5-8--6-5-----------------------------------------|
B|---------------------------------------------------------------------|
G|-----------------------------8--6--5---------------------------------|
D|---------------------------------------------------------------------|
A|---------------------------------------------------------------------|
D|---------------------------------------------------------------------|x4

[ Tab from: http://www.guitartabs.cc/tabs/h/high_holy_days/situation_tab.html ]
CHORUS (Can't believe the situation...)
 |Guitar 1 
e|-----------------------------------------4--|
B|------------------4-------------------------|
G|-11-x-10-x-8--5h6---6p5--11-x-10-x-8-5h6----|
D|--------------------------------------------|
A|--------------------------------------------|
D|--------------------------------------------|x2
 |                                            |
 |Guitar 2                                    |
e|--------------------------------------------|
B|--------------------------------------------|
G|--------------------------------------------|
D|--------------------------------------------|
A|--------------------------------------------|
D|--6666666... (whole chorus...)--------------|


SOLO (w/ wah)
 |Guitar 1  
e|-------8br-------------------------------8br------------------------|
B|-9-7-6-----6-------4br-------4br---9-7-6----6------6br--------4br---|
G|---------------5h6-----6-5h6----6--------------5h6----6p5-5h6----6--|
D|--------------------------------------------------------------------|
A|--------------------------------------------------------------------|
D|--------------------------------------------------------------------|
 |                                                                    |
 |Guitar 2                                                            |
e|--------------------------------------------------------------------|
B|--------------------------------------------------------------------|
G|--------------------------------------------------------------------|
D|--------------------------------------------------------------------|
A|--------------------------------------------------------------------|
D|-444444444444444444444....(whole solo now)--------------------------|

 |Guitar 1  
e|-------8br--------4----------------|
B|-9-7-6-----6--------7p6-4br4br-2---|
G|--------------5h6------------------|
D|-----------------------------------|
A|-----------------------------------|
D|-----------------------------------|
 |                                   |
 |Guitar 2                           |
e|-----------------------------------|
B|-----------------------------------|
G|-----------------------------------|
D|-----------------------------------|
A|-----------------------------------|
D|-4444444444444444444444444444444---|


CHORUS (Can't believe the situation...)
 |Guitar 1 
e|-----------------------------------------4--|
B|------------------4-------------------------|
G|-11-x-10-x-8--5h6---6p5--11-x-10-x-8-5h6----|
D|--------------------------------------------|
A|--------------------------------------------|
D|--------------------------------------------|x2
 |                                            |
 |Guitar 2                                    |
e|--------------------------------------------|
B|--------------------------------------------|
G|--------------------------------------------|
D|--------------------------------------------|
A|--------------------------------------------|
D|--6666666... (whole chorus...)--------------|


BRIDGE (And I know... It's just a show...)
 |Guitar 1                                       |
e|-----------------------------------------------|
B|-----------------------------------------------|
G|-----------------------------------------------|
D|-4~---------6~---------------------------------|
A|-4~---------6~---------------------------------|
D|-4~---------6~---------------------------------|x6
 |                                               |
 |Guitar 2                                       |
e|--8--6-------(bunch of little fills in here,---|
B|--------7-----not gonna bother tabbing them.---|
G|--------------Probably more accurate just to---|
D|--------------make something up anyways :P )---|
A|-----------------------------------------------|
D|-----------------------------------------------|

Just before final chorus:
D|-x-xx-xx-|
A|-x-xx-xx-|
D|-x-xx-xx-|


CHORUS (Can't believe the situation...)
 |Guitar 1 
e|-----------------------------------------4--|
B|------------------4-------------------------|
G|-11-x-10-x-8--5h6---6p5--11-x-10-x-8-5h6----|
D|--------------------------------------------|
A|--------------------------------------------|
D|--------------------------------------------|x2
 |                                            |
 |Guitar 2                                    |
e|--------------------------------------------|
B|--------------------------------------------|
G|--------------------------------------------|
D|--------------------------------------------|
A|--------------------------------------------|
D|--6666666... (whole chorus...)--------------|


OUTRO
 |Guitar 1   
e|------4--------------------------|
B|---------------------------------|
G|--5h6----------------------------|
D|---------------------------------|
A|---------------------------------|
D|---------------------------------| x30
 |                                 |
 |Guitar 2                         |
e|---------------------------------|
B|---------------------------------|
G|---------------------------------|
D|---------------------------------|
A|---------4-(x12)-6-(x12)-8(x36)--|
D|-6-(x12)-------------------------|


END ON:
 |Guitar 1   
e|--4~-2~-|
B|--------|
G|--------|
D|--------|
A|--------|
D|--------|
 |        |
 |Guitar 2|
e|--------|
B|--------|
G|--------|
D|--6~----|
A|--6~----|
D|--6~----|

All done :D


| /  slide up
| \  slide down
| h  hammer-on
| p  pull-off
| ~  let ring
| +  harmonic
| x  Mute note
============================================================================
Comments