High Holy Days - River Of Styx Chords & Tabs

 

River Of Styx Chords & Tabs

High Holy Days Chords & Tabs

Version: 1 Type: Tab 0 ratings
1 star 2 stars 3 stars 4 stars 5 stars
comments

River Of Styx Tab

   
----------------------------------------------------------------------------
	              RIVER OF STYX- High Holy Days
----------------------------------------------------------------------------

Tabbed by: Tyler Greig
E-mail: gtheleadguitarist@hotmail.com

Half step down (Eb Ab Db Gb Bb Eb)

Only a 4-chord song, with a pretty slow solo, so it shouldn't be too difficult. Great song
though. You can decide what you want to play distorted, if anything. Chord names are what I 
know them as in standard tuning. Enjoy.

Intro
       Em     C       G     D    
Eb|------0------0------3------2---|
Ab|-----0------1------3------3----|
Db|----0------0------0------2-----|
Gb|---2------2------0------0------|
Bb|--2------3------2------0-------|
Eb|-0------0------3------0--------| x2



Verse

brackets indicate optional notes.
     Em                       G
Eb|-(0)-0---0-0-0-0-0-0-0-0--(3)-3---3-3-3-3-3-3-3-3-|
Ab|-(0)-0---0-0-0-0-0-0-0-0--(3)-3---3-3-3-3-3-3-3-3-|
Db|-(0)-0---0-0-0-0-0-0-0-0--(0)-0---0-0-0-0-0-0-0-0-|
Gb|--2--2---2-2-2-2-2-2-2-2---0--0---0-0-0-0-0-0-0-0-|
Bb|--2--2---2-2-2-2-2-2-2-2---2--2---2-2-2-2-2-2-2-2-|
Eb|--0--0---0-0-0-0-0-0-0-0---3--3---3-3-3-3-3-3-3-3-|


Chorus

You shouldn't have any trouble picking up the rhythm.
       Em       C       G       D
Eb|-----0-------0-------3-------2-----|
Ab|-----0-------1-------3-------3-----|
Db|-----0-------0-------0-------2-----|
Gb|-----2-------2-------0-------0-----|
Bb|-----2-------3-------2-------0-----|
Eb|-----0-------0-------3-------0-----|

[ Tab from: http://www.guitartabs.cc/tabs/h/high_holy_days/river_of_styx_tab.html ]
After 1st chorus: (this is bass, but whatever. Play it on the guitar anyways. :D)
Eb|------------------------|
Ab|------------------------|
Db|------------------------|
Gb|------------------------|
Bb|------------------------|
Eb|--0~---3/----7/---15~\--|


Before 2nd and 3rd Choruses:
Eb|-----|
Ab|-----|
Db|-4/9-|
Gb|-----|
Bb|-----|
Eb|-----|


Bridge:

       Em       C       G       D     Em
Eb|-----0-------0-------3-------2---|--0--|
Ab|-----0-------1-------3-------3---|--0--|
Db|-----0-------0-------0-------2---|--0--|
Gb|-----2-------2-------0-------0---|--2--|
Bb|-----2-------3-------2-------0---|--2--|
Eb|-----0-------0-------3-------0---|--0--|


SOLO
Eb|-------------------------------------------------------------------|
Ab|-------------6\5-3p1-------------------/12-12-12-12-12\-/8-8-8-8-8-|
Db|-5\4-2p4-5~----------0~--0--4/-7v~---------------------------------|
Gb|-------------------------------------------------------------------|
Bb|-------------------------------------------------------------------|
Eb|-------------------------------------------------------------------|

Eb|--------------------------------------|
Ab|--8-8-8p7-5p3-------------------------|
Db|--------------4p2-0-2br-0-------------|
Gb|--------------------------0h2/5-2~----|
Bb|--------------------------------------|
Eb|--------------------------------------|

Chorus til fade out. I like to throw it licks from the solo during the final choruses. Have fun :D


| /  slide up
| \  slide down
| h  hammer-on
| p  pull-off
| ~  vibrato
| +  harmonic
| x  Mute note
===========================================================================
Comments