High And Mighty Color - Ichirin No Hana (bleach 3rd Opening) Chords & Tabs

 

Ichirin No Hana (bleach 3rd Opening) Chords & Tabs

High And Mighty Color Chords & Tabs

Version: 1 Type: Tab 0 ratings
1 star 2 stars 3 stars 4 stars 5 stars
comments

Ichirin No Hana (bleach 3rd Opening) Tab

   
Bleach 3rd Opening

Ichirin no hana - High and Mighty Color

Guitar Tab

Tab by Uranai (ppp@mexico.com)

Greetings, this is my tab for Bleach 3rd Opening song,
I am sure of most parts, send any corrections/suggestions
to me (ppp@mexico.com),

Happy playing!!!



                                                         
E||--------------------------|--------------------------|
B||-----------5--------7-----|-----5--------8-----------|
G||--6-----------------------|--------------------------|
D||-----4--6-----4--6-----4--|--6-----4--6--------4--6--|
A||--------------------------|-----------------4--------|
E||--------------------------|--------------------------|


                                                      
--------------------------|--------------------------|
-----------5--------7-----|-----5--------8-----------|
--6-----------------------|--------------------------|
-----4--6-----4--6-----4--|--6-----4--6--------4--6--|
--------------------------|-----------------4--------|
--------------------------|--------------------------|


                                                      
--------------------------|--------------------------|
--------------------------|--------------------------|
--6--6--6--6--6--6--6--6--|--8--8--8--8--8--8--8--8--|
--6--6--6--6--6--6--6--6--|--8--8--8--8--8--8--8--8--|
--4--4--4--4--4--4--4--4--|--6--6--6--6--6--6--6--6--|
--------------------------|--------------------------|


                                                                               
--------------------------|------------------------|--------------------------|
--------------------------|------------------------|--------------------------|
--9--9--9--9--9--9--9--9--|--11------11------11----|--6--6--6--6--6--6--6--6--|
--9--9--9--9--9--9--9--9--|--11------11------11----|--6--6--6--6--6--6--6--6--|
--7--7--7--7--7--7--7--7--|--9-------9-------9-----|--4--4--4--4--4--4--4--4--|
--------------------------|------------------------|--------------------------|


                                                      
--------------------------|--------------------------|
--------------------------|--------------------------|
--8--8--8--8--8--8--8--8--|--9--9--9--9--9--9--9--9--|
--8--8--8--8--8--8--8--8--|--9--9--9--9--9--9--9--9--|
--6--6--6--6--6--6--6--6--|--7--7--7--7--7--7--7--7--|
--------------------------|--------------------------|


                                                                             
--------------------------|------------------------|------------------------|
--------------------------|------------------------|------------------------|
--9--9--9--9--9--9--9--9--|--6----6--6----6--6--6--|--8----8--8----8--8--8--|
--9--9--9--9--9--9--9--9--|--6----6--6----6--6--6--|--8----8--8----8--8--8--|
--7--7--7--7--7--7--7--7--|--4----4--4----4--4--4--|--6----6--6----6--6--6--|
--------------------------|------------------------|------------------------|


                                                                       
------------------------|--------------------||-----------------------|
------------------------|--------------------||-----------------------|
--9----9--9----9--9--9--|--11/---------------||*--6----6----6--6------|
--9----9--9----9--9--9--|--11/---------------||*--6----6----6--6------|
--7----7--7----7--7--7--|--9/----------------||---4----4----4--4------|
------------------------|--------------------||---4----4----4--4------|


                                                                       
----------------------|----------------------|-----------------------||
---------------5------|----------------------|---------------5-------||
--6----6----4--7------|--6----6----6--6------|--6----6----4--7------*||
--6----6----4--7------|--6----6----6--6------|--6----6----4--7------*||
--4----4----4--5------|--4----4----4--4------|--4----4----4--5-------||
--4----4----4--5------|--4----4----4--4------|--4----4----4--5-------||


Half Time Feel
                                                                     
-----------------------|--------------------|-----------------------|
-----------------------|--------------------|-----------------------|
-----------------------|-----------6--------|-----------------------|
--6--6----6--6--6------|-----------6--------|--6--6----6--6--6------|
--4--4----4--4--4------|-----------4--------|--4--4----4--4--4------|
--4--4----4--4--4------|--------4-----------|--4--4----4--4--4------|


                                                                  
--------------------|-----------------------|--------------------|
--------------------|-----------------------|--------------------|
-----------4--------|-----------------------|-----------6--------|
-----------4--------|--6--6----6--6--6------|-----------6--------|
-----------2--------|--4--4----4--4--4------|-----------4--------|
--------2-----------|--4--4----4--4--4------|--------4-----------|


                                                                     
-----------------------|--------------------|-----------------------|
-----------------------|--------------------|-----------------------|
-----------------------|-----------4--------|-----------------------|
--6--6----6--6--6------|-----------4--------|--6--6----6----6----6--|
--4--4----4--4--4------|-----------2--------|--4--4----4----4----4--|
--4--4----4--4--4------|--------2-----------|--4--4----4----4----4--|

[ Tab from: http://www.guitartabs.cc/tabs/h/high_and_mighty_color/ichirin_no_hana_bleach_3rd_opening_tab.html ]
                                                                    
---------------------|-----------------------|---------------------|
---------------------|-----------------------|---------------------|
------------6--------|-----------------------|------------4--------|
----6----6--6--------|--6--6----6----6----6--|----6----6--4--------|
----4----4--4--------|--4--4----4----4----4--|----4----4--2--------|
----4----4-----------|--4--4----4----4----4--|----4----4-----------|


                                                                      
-----------------------|---------------------|-----------------------|
-----------------------|---------------------|-----------------------|
-----------------------|------------6--------|-----------------------|
--6--6----6----6----6--|----6----6--6--------|--6--6----6----6----6--|
--4--4----4----4----4--|----4----4--4--------|--4--4----4----4----4--|
--4--4----4----4----4--|----4----4-----------|--4--4----4----4----4--|


                       (A tempo) 
                                                      
---------------------||---------------------------|--------------------------|
---------------------||---------------------------|--------------------------|
------------4--------||*--6--6--6--6--6--6--6--6--|--8--8--8--8--8--8--8--8--|
----6----6--4--------||*--6--6--6--6--6--6--6--6--|--8--8--8--8--8--8--8--8--|
----4----4--2--------||---4--4--4--4--4--4--4--4--|--6--6--6--6--6--6--6--6--|
----4----4-----------||---------------------------|--------------------------|


                                                                               
--------------------------|------------------------|--------------------------|
--------------------------|------------------------|--------------------------|
--9--9--9--9--9--9--9--9--|--11------11------11----|--6--6--6--6--6--6--6--6--|
--9--9--9--9--9--9--9--9--|--11------11------11----|--6--6--6--6--6--6--6--6--|
--7--7--7--7--7--7--7--7--|--9-------9-------9-----|--4--4--4--4--4--4--4--4--|
--------------------------|------------------------|--------------------------|


                                                      
--------------------------|--------------------------|
--------------------------|--------------------------|
--8--8--8--8--8--8--8--8--|--9--9--9--9--9--9--9--9--|
--8--8--8--8--8--8--8--8--|--9--9--9--9--9--9--9--9--|
--6--6--6--6--6--6--6--6--|--7--7--7--7--7--7--7--7--|
--------------------------|--------------------------|


                                                      
-------------------------||--------------------------|
-------------------------||--------------------------|
--11------11------11----*||--6--6--6--6--6--6--6--6--|
--11------11------11----*||--6--6--6--6--6--6--6--6--|
--9-------9-------9------||--4--4--4--4--4--4--4--4--|
-------------------------||--------------------------|


                                                      
--------------------------|--------------------------|
--------------------------|--------------------------|
--8--8--8--8--8--8--8--8--|--9--9--9--9--9--9--9--9--|
--8--8--8--8--8--8--8--8--|--9--9--9--9--9--9--9--9--|
--6--6--6--6--6--6--6--6--|--7--7--7--7--7--7--7--7--|
--------------------------|--------------------------|


                                                                               
--------------------------||-------------------------|------------------------|
--------------------------||-------------------------|------------------------|
--9--9--9--9--9--9--9--9--||*--6----6--6----6--6--6--|--8----8--8----8--8--8--|
--9--9--9--9--9--9--9--9--||*--6----6--6----6--6--6--|--8----8--8----8--8--8--|
--7--7--7--7--7--7--7--7--||---4----4--4----4--4--4--|--6----6--6----6--6--6--|
--------------------------||-------------------------|------------------------|


                                                        
------------------------|------------------------------|
------------------------|------------------------------|
--9----9--9----9--9--9--|--11----11--11----11--11--11--|
--9----9--9----9--9--9--|--11----11--11----11--11--11--|
--7----7--7----7--7--7--|--9-----9---9-----9---9---9---|
------------------------|------------------------------|


                                                                           
------------------------|------------------------|------------------------|
------------------------|------------------------|------------------------|
--6----6--6----6--6--6--|--8----8--8----8--8--8--|--9----9--9----9--9--9--|
--6----6--6----6--6--6--|--8----8--8----8--8--8--|--9----9--9----9--9--9--|
--4----4--4----4--4--4--|--6----6--6----6--6--6--|--7----7--7----7--7--7--|
------------------------|------------------------|------------------------|


                                                                     
--------------------||-----------------------|----------------------|
--------------------||-----------------------|---------------5------|
--11/---------------||*--6----6----6--6------|--6----6----4--7------|
--11/---------------||*--6----6----6--6------|--6----6----4--7------|
--9/----------------||---4----4----4--4------|--4----4----4--5------|
--------------------||---4----4----4--4------|--4----4----4--5------|


                                                                   
----------------------|-----------------------||------------------|
----------------------|---------------5-------||------------------|
--6----6----6--6------|--6----6----4--7------*||------------------|
--6----6----6--6------|--6----6----4--7------*||------------------|
--4----4----4--4------|--4----4----4--5-------||------------------|
--4----4----4--4------|--4----4----4--5-------||------------------|


                                                                                
--4------------4-4-4-4-|----------------------------------|-------------------||
--4------------4-4-4-4-|----------------------------------|-------------------||
--6------------6-6-6-6-|--6-6-6-6-6-6-6-6-------------4-5-|--6/---------------||
--6------------6-6-6-6-|--6-6-6-6-6-6-6-6-------4-6-7-----|--6/---------------||
--4------------4-4-4-4-|--4-4-4-4-4-4-4-4-4-6-7-----------|--4/---------------||
--4------------4-4-4-4-|--4-4-4-4-4-4-4-4-----------------|--4/---------------||


Comments