High Adrenalin - Tuning Up Chords & Tabs

 

Tuning Up Chords & Tabs

High Adrenalin Chords & Tabs

Version: 2 Type: Tab 0 ratings
1 star 2 stars 3 stars 4 stars 5 stars
comments

Tuning Up Tab

   
Song: Tuning Up
Band: High Adrenalin
Submitted by: Kurt
Any questions or mistakes you see just e-mail me  SkiRApperKurt@msn.com

This band rocks....Here is there tab...

m=muted
\=slide up


INTRO:
  mmmmmm  mm  mmmmmm  mm  mmmmmmmmmmmmmmmm
E-----------------------------------------------|
B-----------------------------------------------|
G---------44----------44--0000000000000000------| repeat 4 times
D-666666--44--444444--44--2222222222222222------|
A-666666--22--444444--22--2222222222222222------|
E-444444------222222----------------------------|
   Muted only the first time


Interlude:

E-------------------------------|
B-------------------------------|
G-7-----------------------------|
D-5--9--5-\7--7-----------------|
A-5--7--3-\5--5-----------------|
E----7--3-\5--5-----------------|


Verse:

E------------------------------------------------------------------|
B------------------------------------------------------------------|
G------777---------------------------------------------------------|
D-777--777--99999999--11-11-11-11-11-11-11-11----------------------|   repeat 3 times
A-777--555--99999999--11-11-11-11-11-11-11-11----------------------|
E-555-------77777777---9--9--9--9--9--9--9--9----------------------|


Chorus:

[ Tab from: http://www.guitartabs.cc/tabs/h/high_adrenalin/tuning_up_tab_ver_2.html ]
E-----------------------------------------------------------------|
B-----------------------------------------------------------------|
G-----------77777777----------------------------------------------|
D-77777777--77777777--999999--11-11--12-12-12-12-12-12-12-12------|   repeat 4 times
A-77777777--55555555--999999--11-11--12-12-12-12-12-12-12-12------|
E-55555555------------777777---9--9--10-10-10-10-10-10-10-10------|
(3rd time play all the same notes, but a string higher.  Then forth time regular)

Verse 2:


E----------------------------------------------------------------------------------------------------------------|
B-------4--------4--------2--------2--------4--------4--------2--------2--------4--------4--------2--------2-----|
G-4--4-----4--4-----4--4-----4--4-----4--4-----4--4-----4--4-----4--4-----4--4-----4--4-----4--4-----4--4-----4--|
D----------------------------------------------------------------------------------------------------------------|
A----------------------------------------------------------------------------------------------------------------|
E----------------------------------------------------------------------------------------------------------------|

(cont. verse 2)
E----------------------------|
B-------4--------4--------0--|         let the last note ring for 3 seconds
G-4--4-----4--4-----4--4-----|
D----------------------------|      Repeat 2 times
A----------------------------|
E----------------------------|


Ending:


Wait two seconds and end with this chord:

E---
B---
G---
D-7-   and let it ring
A-7-
E-5-


Order:

Intro
Interlude
Verse
Chorus
Interlude
Verse 2
Chorus w/Ending
Comments