Hiding With Girls - The Stars Cascade Chords & Tabs

 

The Stars Cascade Chords & Tabs

Hiding With Girls Chords & Tabs

Version: 1 Type: Tab 0 ratings
1 star 2 stars 3 stars 4 stars 5 stars
comments

The Stars Cascade Tab

   
band:Hiding With Girls
Song: The Stars Cascade

www.hwgonline.com

Okay, well posted by Tristan from the site, but really messy
so ive cleaned it up so its readable.

Tuning: C-G-C-F-A-D

Intro (lead) - listen to the song to figure out how to play it!
USE PALM TO MUTE IT..
D|--------------------------------------------------------------------------|
A|---12------12------12-----12--------15--15--15--15-------15---------------|
F|-------12------12------12-----12-----------------------14-------14--------|
C|--------------------------------------------------------------------------|
G|--------------------------------------------------------------------------|
C|--------------------------------------------------------------------------|


Intro/Pre-verse Rhythm Guitar/Prechorus
D|--------------------------------------------------------------------------|
A|--------------------------------------------------------------------------|
F|--------------------------------------------------------------------------|
C|--10------------10--0-------0--10-----------------------------------------|
G|--10------------10--0-------0--10-----------------------------------------|
C|--10------------10--0-------0--10-----------------------------------------|
repeat this riff 3times, then on the last time:

D|--------------------------------------------------------------------------|
A|--------------------------------------------------------------------------|
F|--------------------------------------------------------------------------|
C|-10-------10--5--0------------5--5---------5--5---------5--5----5--------5|
G|-10-------10--5--0------------------------------3-3-3-3-------------------|
C|-10-------10--5--0---2-2-2-2------0-0-0-0-------------------5-5----4-4----|
[ Tab from: http://www.guitartabs.cc/tabs/h/hiding_with_girls/the_stars_cascade_tab.html ]
Then directly onto the normal verse: first two lines
"In this life my chosen heart, reaching out to you tonight... 
blessed with sense of what they mean I never speak again."
D|--------------------------------------------------------------------------|
A|--------------------------------------------------------------------------|
F|--------------------------------------------------------------------------|
C|----------5--5-----------5--5-----------5--5------5-------5---------------|
G|-3-3-3-3------------------------------------------------------------------|
C|----------------0-0-0-0-------2-2-2-2--------5-5----7-7-------------------|

Then in the last two lines in the song, goes:
"The sad fact is, you noticed that I never call.."  
D|--------------------------------------------------------------------------|
A|--------------------------------------------------------------------------|
F|--------------------------------------------------------------------------|
C|------------5--------------5-------------5----------5-------5-------------|
G|-3-3-3-3------------------------------------------------------------------|
C|----------------0-0-0-0-------2-2-2-2--------5-5----7-7-------------------|

Then in the end:
"...and never write you and I never speak at all."
D|--------------------------------------------------------------------------|
A|--------------------------------------------------------------------------|
F|---------------------------------------------------12--12-----------------|
C|------------5--------------5--2---------5----------10--12-----------------|
G|-3-3-3-3----------------------2---------5----------10--12-----------------|
C|----------------0-0-0-0-------2---------5----------10--12-----------------|

Now it goes:
"Come clean, Cave in, drive into the stars, a sky that I can see "
D|--------------------------------------------------------------------------|
A|--------------------------------------------------------------------------|
F|--------------------------------------------------------------------------|
C|--10------------10--0-------0--10-----------------------------------------|
G|--10------------10--0-------0--10-----------------------------------------|
C|--10------------10--0-------0--10-----------------------------------------|



Next is the bouncy part :) :
D|--------------------------------------------------------------------------|
A|--------------------------------------------------------------------------|
F|--------------------------------------------------------------------------|
C|-4--2-2--2-4-0-0-0-0------------------------------------------------------|
G|-4--2-2--2-4-0-0-0-0------------------------------------------------------|
C|-4--2-2--2-4-0-0-0-0------------------------------------------------------|
this is repeated 4 times before going into Normal Verse

Figure out the patterns for yourself ;)
Comments