Hiding With Girls - The Stars Cascade Acoustic Chords & Tabs

 

The Stars Cascade Acoustic Chords & Tabs

Hiding With Girls Chords & Tabs

Version: 1 Type: Tab 0 ratings
1 star 2 stars 3 stars 4 stars 5 stars
comments

The Stars Cascade Acoustic Tab

artist-hiding with girls http://www.hidingwithgirls.com/
song-the stars cascade acoustic
*strumming patterns not shown
tabbed by-barry carlin
listen to the song for timing
drop c tuning
only one guitar plays in the acoustic version

     intro-
     ------------------------------10--|
     ---------------12-------------12--|
     ---------------12-------------12--|
     ---------------10------------ 0---|
     ---------------10-------------0---|
     ---------------10-------------0---|

      pre verse-
     ----------------------------------------------------------------------|
     ----------------------------------------------------------------------|
     ----------------0---------------0-----------------0-------------------|
     -------------5----5----------5 --5-------------5---5--------5------5--|
     ---------------------------------------------3-3----------------------|
     --------2-2--------------0-0-----------------------------55----44-----|

     verse
     -----------------------------------------------------------------------------|
     -----------------------------------------------------------------------------|
     ---------------0-------------0-----------0-----------------------------------|
     ------------5----5--------5---5 ------5---5-------5------5--------5-------5--|
     -------3-3--------------------------------------------------------5-------7--|
     ----------------------0-0---------2-2----------55----77-----------5-------7--|

     pre chorus-
     ------------------------------10--|
     ---------------12-------------12--|
     ---------------12-------------12--|
     ---------------10------------ 0---|
     ---------------10-------------0---|
     ---------------10-------------0---|

    chorus-
     ---------------------------------------------------------10------------------------------|
     --------------------------------------------12-----------12------------------------------|
     -------------9------------------------------12-----------12------------------------------|
     --- 2--------x---------5----4 ----0--------10------------0------------------5---------5--|
     ----2--------7---------5----4-----0--------10------------0--------------7-----------5----|
     ----2------------------5----4-----0---------10-----------0----------7----------5---------|

[ Tab from: http://www.guitartabs.cc/tabs/h/hiding_with_girls/the_stars_cascade_acoustic_tab.html ]
     pre verse-
     ----------------------------------------------------------------------|
     ----------------------------------------------------------------------|
     ----------------0---------------0-----------------0-------------------|
     -------------5----5----------5 --5-------------5---5--------5------5--|
     ---------------------------------------------3-3----------------------|
     --------2-2--------------0-0-----------------------------55----44-----|


     verse
    ------------------------------------------------------------------------------|
     -----------------------------------------------------------------------------|
     ---------------0-------------0-----------0-----------------------------------|
     ------------5----5--------5---5 ------5---5-------5------5--------5-------5--|
     -------3-3--------------------------------------------------------5-------7--|
     ----------------------0-0---------2-2----------55----77-----------5-------7--|


     pre chorus-
     ------------------------------10--|
     ---------------12-------------12--|
     ---------------12-------------12--|
     ---------------10------------ 0---|
     ---------------10-------------0---|
     ---------------10-------------0---|


     chorus-
     --------------------------------------------------------10-------------------------------|
     --------------------------------------------12----------12-------------------------------|
     -------------9------------------------------12----------12-------------------------------|
     --- 2--------x---------5----4 ----0---------10-----------0------------------5---------5--|
     ----2--------7---------5----4-----0---------10-----------0---------------7----------5----|
     ----2------------------5----4-----0---------10-----------0----------7----------5---------|


     bridge-
     ----------------------|
     ----------------------|
     -----5----------------|
     -----5------------5---|
     -----3-------------7--|
     -------------------7--|


     chorus-
     --------------------------------------------------------10-------------------------------|
     -------------------------------------------12-----------12-------------------------------|
     -------------9-----------------------------12-----------12-------------------------------|
     --- 2--------x---------5----4 ----0--------10------------0------------------5---------5--|
     ----2--------7---------5----4-----0--------10------------0---------------7----------5----|
     ----2------------------5----4-----0--------10------------0----------7----------5---------|


      outro-
     -------------------------------10--|
     ---------------12-------------12---|
     ---------------12-------------12---|
     ---------------10------------ 0----|
     ---------------10-------------0----|
     ---------------10-------------0----|

any questions/corrections feel free to email me the_machine_question@hotmail.com
Comments