Hiding With Girls - Marty Mcfly Chords & Tabs

 

Marty Mcfly Chords & Tabs

Hiding With Girls Chords & Tabs

Version: 1 Type: Tab 0 ratings
1 star 2 stars 3 stars 4 stars 5 stars
comments

Marty Mcfly Tab

Artist:	Hiding With Girls
Song: 	Marty McFly
tabbed by:funeralforafrie and www.hwgonline.com

Well, I tabbed some of it, then found out that they already had the tabs on
www.hwgonline.com so erm, corrected mine and added the lyrics in to that one
Awesome band, check out the site for audio, video lyrics and more tabs.


Intro
|--------------------------------|--------------------------------||
|--------------------------------|--------------------------------||
|--------------------------------|--------------------------------||
|--10--10--x-12-12-12------------|--10--10--x-12-12-12------------||
|--10--10--x-10-10-10---12-14----|--10--10--x-10-10-10---12-14----||
|--10--10--x-10-10-10-x----------|--10--10--x-10-10-10-x----------||
         yeah,      yeah,     yeah,       yeah


Verse
|--------------------------------|--------------------------------||
|--------------------------------|--------------------------------||
|--------------------------------|--------------------------------||
|--------------------------------|--------------------------------||
|----10--10--10--10--10--10--10--|----7---7---7---7---7---7-------||
|--7-----------------------------|--3-----------------------5-----||
     Was at  the drive-in when I    saw this movie with you in
     It was a winter night   as     I recall dreaming  of sky


|--------------------------------|--------------------------------|
|--------------------------------|--------------------------------|
|--------------------------------|--------------------------------|
|--------10----------10----------|--------7-------5---------------|
|----10------10--10------10--10--|----7-------7-------7---5-------|
|--------------------------------|--3-----------------------5-----|
   But   all    this    time       she wished for nothing more


|--------------------------------|--------------------------------||
|--------------------------------|--------------------------------||
|--------------------------------|--------------------------------||
|--------10----------10----------|--------7-----------x-5---x-7---||
|----10------10--10------10--10--|----7-------7-------x-5---x-7---||
|--------------------------------|--3-----------------x-5---x-7---||
   Than   to   earn   a   life     and  keep  it      for   her


Bridge
|--------------------------------|--------------------------------|
|--------------------------------|--------------------------------|
|--------------------------------|--------------------------------|
|--10--10--x-12-12-12------------|--10--10--x-12-12-12------------|
|--10--10--x-10-10-10---12-14----|--10--10--x-10-10-10---12-14----|
|--10--10--x-10-10-10-x----------|--10--10--x-10-10-10-x----------|
   self...              and   I     swear,     I'll be    that guy


|--------------------------------|--------------------------------|
|--------------------------------|--------------------------------|
|------12----12--------12----12--|------9-----9---------12----12--|
|--------10--------------10------|--------7---------------10------|
|--10------10------10------10----|---7------7-------10------10----|
|--------------------------------|--------------------------------|
           who wanted    the same         I never   wanted change


|--------------------------------|--------------------------------||
|--------------------------------|--------------------------------||
|------12----12--------12----12--|------9-----9--------12---12----||
|--------10--------------10------|--------7--------------10---10--||
|--10------10------10------10----|---7------7-------10------------||
|--------------------------------|--------------------------------||
     so just keep         us apart

[ Tab from: http://www.guitartabs.cc/tabs/h/hiding_with_girls/marty_mcfly_tab.html ]
Chorus
|--------------------------------|--------------------------------|
|--------------------------------|--------------------------------|
|------------9-9-9-9-------------|------------9-9-9-9-------------|
|-7-7--7-7-x-9-9-9-9--10-10-10-10|-7-7--7-7-x-9-9-9-9--5-5-5-5----|
|-7-7--7-7-x-7-7-7-7--10-10-10-10|-7-7--7-7-x-7-7-7-7--5-5-5-5----|
|-7-7--7-7-x----------10-10-10-10|-7-7--7-7-x----------5-5-5-5----|
                                               Yeah it's just a 
                                                      But can I 

|--------------------------------|--------------------------------||
|--------------------------------|--------------------------------||
|------------9-9-9-9-------------|------------9-9-9-9-------------||
|-3-3--3-3-x-9-9-9-9--5-5-5-5----|-3-3--3-3-x-9-9-9-9--5---5---5--||
|-3-3--3-3-x-7-7-7-7--5-5-5-5----|-3-3--3-3-x-7-7-7-7--5---5---5--||
|-3-3--3-3-x----------5-5-5-5----|-3-3--3-3-x----------5---5---5--||
  one night thing so    sit back   down      again
  be   the  one    who breaks it   down   for   you?


Middle Eight (clean sound with delay / chorus effect)
|--------------------------------|--------------------------------|
|--------------------------------|--------------------------------|
|------12----12--------12----12--|------9-----9---------12----12--|
|--------10--------------10------|--------7---------------10------|
|--10------10------10------10----|---7------7-------10------10----|
|--------------------------------|--------------------------------|


|--------------------------------|--------------------------------|
|--------------------------------|--------------------------------|
|------12----12--------12----12--|------9-----9---------12----12--|
|--------10--------------10------|--------7---------------10------|
|--10------10------10------10----|---7------7-------10------10----|
|--------------------------------|--------------------------------|


|--------------------------------|--------------------------------|
|--------------------------------|--------------------------------|
|------12----12--------12----12--|------9-----9---------12----12--|
|--------10--------------10------|--------7---------------10------|
|--10------10------10------10----|---7------7-------10------10----|
|--------------------------------|--------------------------------|

|--------------------------------|--------------------------------|
|--------------------------------|--------------------------------|
|------12----12--------12----12--|------9-----9---------12----12--|
|--------10--------------10------|--------7---------------10------|
|--10------10------10------10----|---7------7-------10------10----|
|--------------------------------|--------------------------------|


Middle Eight (heavy part)
|--------------------------------|--------------------------------||
|--------------------------------|--------------------------------||
|--------------------------------|--------------------------------||
|--x--7-7-7-7-7----x--3-3-3-3-3--|--x--0-0-0-0-0----x--3-3-3-3-3--||
|--x--7-7-7-7-7----x--3-3-3-3-3--|--x--0-0-0-0-0----x--3-3-3-3-3--||
|--x--7-7-7-7-7----x--3-3-3-3-3--|--x--0-0-0-0-0----x--3-3-3-3-3--||
      You want it     you need it      so read it 

|--------------------------------|--------------------------------||
|--------------------------------|--------------------------------||
|--------------------------------|--------------------------------||
|--x--7-7-7-7-7----x--3-3-3-3-3--|--x--7-7-7-7-7----3-3-x-x-x-x---||
|--x--7-7-7-7-7----x--3-3-3-3-3--|--x--7-7-7-7-7----3-3-x-x-x-x---||
|--x--7-7-7-7-7----x--3-3-3-3-3--|--x--7-7-7-7-7----3-3-x-x-x-x---||
      You want it     you need it      so be it

|--------------------------------||
|--------------------------------||
|--------------------------------||
|--3-3-x-x-x-x----------3-5------||
|--3-3-x-x-x-x----------3-5------||
|--3-3-x-x-x-x----------3-5------|| (back into chorus)
Comments