Hidell - Going Down In Flames Chords & Tabs

 

Going Down In Flames Chords & Tabs

Hidell Chords & Tabs

Version: 1 Type: Bass Tab 0 ratings
1 star 2 stars 3 stars 4 stars 5 stars
comments

Going Down In Flames Bass Tab

Intro:

G:--------------------------:
D:--------------------------:  
A:----------------2-2-------:
E:--5-5--0-2-2-2------0-0-0-:

Verse:

G:-------------------------------------:
D:-------------------------------------:  
A:--------------------2-2-2-2----------:
E:--5-5-5-5--2-2-2-2-----------0-0-0-0-:

Chorus
[ Tab from: http://www.guitartabs.cc/tabs/h/hidell/going_down_in_flames_btab.html ]
G-----------------------------------------------------------------:
D-----------------------------------------------------------------:   
A--5-5-5-5-5-5-5-5-0-0-0-0-0-0-0-0-2-2-2-2-2-2-2-2----------------:
E--------------------------------------------------3-3-3-3-3-3-3-3:

Break:
G---------------------------------------:
D---------------------------------------:
A---------------------------------------:
E--5-5-5-5-6-6-6-6-7-7-7-7-12-12-12-12--:

Order:
Intro: x2
Verse: x4
Chorus: x1
Verse: x4
Chorus: x1
Intro: x6
Verse: x4
Chorus: x1
Intro: x8
REST
Break: x2
Intro: x4
Break: x4
Comments