Hidden In Plain View - Shamans Witchs Magic Chords & Tabs

 

Shamans Witchs Magic Chords & Tabs

Hidden In Plain View Chords & Tabs

Version: 1 Type: Tab 0 ratings
1 star 2 stars 3 stars 4 stars 5 stars
comments

Shamans Witchs Magic Tab

-------------------------------------------------------------------
           Shamans Witchs Magic - Hidden In Plain View
-------------------------------------------------------------------
tabbed by eric pihl

email:hopeinxasmile@netscape.net

This is definitly 100% correct, mike from hidden in plain view tabbed this out himself 
me!
this is not a joke, he said "this is 100% accurate, if it's not then I officially quit 
band!"
standard tuning

intro:
E------0---------0---------3---------3-----|
B--------0---------0---------3---------3---|
G----------0---------0---------0---------0-|
D--3-3-------3-3-------2-2-------2-2-------|
A--3-3-------3-3-------2-2-------2-2-------|
E--1-1-------1-1-------0-0-------0-0-------| x2

E----------0~~---------3~~----------0~~-----------3-3-3-3-|
B----------0~~---------3~~----------0~~-----------3-3-3-3-|
G----------0~~---------0~~----------0~~-----------0-0-0-0-|
D--3-3-3-3-----2-2-2-2------3-3-3-3------2-2-2-2--2-2-2-2-|
A--3-3-3-3-----2-2-2-2------3-3-3-3------2-2-2-2--2-2-2-2-|
E--1-1-1-1-----0-0-0-0------1-1-1-1------0-0-0-0--0-0-0-0-|
[ Tab from: http://www.guitartabs.cc/tabs/h/hidden_in_plain_view/shamans_witchs_magic_tab.html ]
verse: listen to CD for strumming pattern
E---------------------------------------------------------|
B-------------5-------------3-------------3--^1--1--^3--3-|
G--^5--5--^5--5--^5--5--^5--5--^4--4--^4--4--^2--2--^4--4-|
D--^7--7--^7--7--^5--5--^5--5--^5--5--^5--5--^3--3--^5--5-|
A--^7--7--^7--7--^3--3--^3--3--^5--5--^5--5--^3--3--^5--5-|
E---------------------------------------------------------|

chorus: "no one sleeps tonight..."
E-----------------------------------------------------------------------------------------|
B-----------------------------------------------------------------------------------------|
G--2-2-2-2-----------------5-5-5-4-4-4----7-----7-----2-----2-------4-----4---5-5-5-4-4-4-|
D--2-2-2-2-3-3-3-3-5-5-5-5-5-5-5-5-5-5------5-----5-----3-----3-/-----5-----5-5-5-5-5-5-5-|
A--0-0-0-0-3-3-3-3-5-5-5-5-3-3-3-2-2-2--5-----5-----3-----3-----/-5-----5-----3-3-3-2-2-2-|
E----------1-1-1-1-3-3-3-3----------------------------------------------------------------|

after second chorus: "sacrafiiiiiiiiiiced..."
E------0------------------3-------------|
B------0------------------3-------------|
G------0------------------0-------------|
D--3-3---3-3--^3-3-3--2-2---2-2--^2-2-2-|
A--3-3---3-3--^3-3-3--2-2---2-2--^2-2-2-|
E--1-1---1-1--^1-1-1--0-0---0-0--^0-0-0-| x2

bridge/outrow: "who we are..."
E--3-3-3-3-3--3-3-3-3-3--3-3-3-3-3--3-3-3-3-3-|
B--3-3-3-3-3--3-3-3-3-3--3-3-3-3-3--3-3-3-3-3-|
G--0-0-0-0-0--0-0-0-0-0--2-2-2-2-2--0-0-0-0-0-|
D--2-2-2-2-2--2-2-2-2-2--2-2-2-2-2--0-0-0-0-0-|
A--3-3-3-3-3--2-2-2-2-2--0-0-0-0-0--2-2-2-2-2-|
E-------------0-0-0-0-0-------------3-3-3-3-3-|

~ let ring
^ palm mute
/ slide
Comments