Hidden In Plain View - Bleed For You Chords & Tabs

 

Bleed For You Chords & Tabs

Hidden In Plain View Chords & Tabs

Version: 1 Type: Tab 0 ratings
1 star 2 stars 3 stars 4 stars 5 stars
comments

Bleed For You Tab

   
CHORUS/INTRO (Guitar 1)

E----------------------------------------------------------------------------|
B----------------13----------------------------------------------------------|
G-----12----12----12----12---------------------------------------------------|
D-10----10-----------10------------------------------------------------------|
A----------------------------------------------------------------------------|
D----------------------------------------------------------------------------|

INTRO (Guitar 2)

E-----------------------------------------------------------|
B-----------------------------------------------------------|
G---------------------------------77779999------------------|
D-77777777888888881010101010101010---------7777777788888888-|
A-7777777788888888101010101010101055557777-7777777788888888
D-77777777888888881010101010101010---------7777777788888888

VERSE (Guitar 1)

E-0-------------------------------------------------------------------------|
B-0-------------------------------------------------------------------------|
G-2--2b3-2b3-2b3------------------------------------------------------------|
D-2-------------2b3---333333333333333---------------------------------------|
A-0-------------------333333333333333---------------------------------------|
D---------------------333333333333333---------------------------------------|

VERSE (Guitar 2)
E-------------------------------------------------------------------|
B-------------------------------------------------------------------|
G------9109-------------9109----9-----------------------------------|
Dó710---------10710710-------10-------------------------------------|
A-------------------------------------------------------------------|
D-------------------------------------------------------------------|

CHORUS (Guitar 2)
E------------------------------------------------------------|
B------------------------------------------------------------|
G------------------------------------------------------------|
D-00000000888888883333333355555555---------------------------|
A-00000000888888883333333355555555---------------------------|
D-00000000888888883333333355555555---------------------------|
[ Tab from: http://www.guitartabs.cc/tabs/h/hidden_in_plain_view/bleed_for_you_tab.html ]
2nd Part of 2nd Verse
E--0-0-0-0-0-0-0-0-------------------------------------------------|
B-1010101010101010-------------------------------------------------|
G--9-9-9-9-9-9-9-9-------------------------------------------------|
D-1010101010101010-------------------------------------------------|
A------------------------------------------------------------------|
D------------------------------------------------------------------|

MIDDLE (Guitar 1)
E-----------------------------------------------------------|
B-----------------------------------------------------------|
G-----------------------------------------------------------|
D-33333333333333338888888888888888---------------0----------|
A-33333333333333338888888888888888---------------0----------|
D-33333333333333338888888888888888---------------0----------|
						End Note ^
MIDDLE (Guitar 2)
E--------------------------------------------------------------------|
B-8-6---8-6---86-8-6-8-6--86-----------------------------------------|
G------5-----5----------5----10101010121212121414141417171717--------|
D--------------------------------------------------------------------|
A-----------------------------8 8 8 8101010101212121215151515--------|
D--------------------------------------------------------------------|

Second Part
E---------0---------0----------0--------0------0-------0---------------------|
B---------0---------0---10-----0----10--0------0-------0---------------------|
G-101210 -9-101210--9-10----10-910----1091012109-1012109---------------------|
D----------------------------------------------------------------------------|
A----------------------------------------------------------------------------|
D----------------------------------------------------- ----------------------|
Pick scrape
E----------------------------------------------------------------------------|
B----------------------------------------------------------------------------|
G----------------------------------------------------------------------------|
D-33333333333333332222222233333333-------------------------------------------|
A-33333333333333332222222233333333-------------------------------------------|
D-33333333333333332222222233333333-------------------------------------------|

LAST CHORUS OCTAVES
E----------------------------------------------------------------------------|
B----------------------------------------------------------------------------|
G-10101010101212121010101010141414-------------------------------------------|
D----------------------------------------------------------------------------|
A-8 8 8 8 8 1010108 8 8 8 8 121212-------------------------------------------|
D----------------------------------------------------------------------------|
Comments