Hidden In Plain View - Belly Full Of Kerosene Chords & Tabs

 

Belly Full Of Kerosene Chords & Tabs

Hidden In Plain View Chords & Tabs

Version: 1 Type: Tab 0 ratings
1 star 2 stars 3 stars 4 stars 5 stars
comments

Belly Full Of Kerosene Tab

   
hidden in plain view-keresone

this tab is 100 perfect note for note - very easy to play and figure out-

drop d

intro

-----------------------------|
-----------------------------|
-------------------1010-1210-|
-8-8-8-8-8-8-8-8-0-----------|
-8-8-8-8-8-8-8-8-0--let ring-|
-8-8-8-8-8-8-8-8-0-----------|

verse 1


play on g string

g --1210-1210--1514-1514--------------------------


chorus-then into intro again


-------------------------------------------------|
-------------------------------------------------|
-------------------------------------------------|
-88888888-00000000-88888888-10101010-------------|
-88888888-00000000-88888888-10101010-------------|
-88888888-00000000-88888888-10101010-------------|

for verse 2 repeat verse 1 on guitar 1 but gt.2 does this

[ Tab from: http://www.guitartabs.cc/tabs/h/hidden_in_plain_view/belly_full_of_kerosene_tab.html ]
-------------------------------------|
-------------------------------------|
-1010101010--------------------------|
xxxxxxxxxxxxxxxxxxxxxxxxxxxxx
-8-8-8-8-8-------------------------|
-----------------------------------|


then bridge


----------------------------------------|
----------------------------------------|
----------------------------------------|
-00-00-00-00-88-88-88-88----------------|
-00-00-00-00-88-88-88-88----------------|
-00-00-00-00-88-88-88-88----------------|


play on b-5p6p5p6p5p8p9p8p9p8p9---------

in background play on g  g ----1514-1514---


back into chorus

but in back do this

-----------------------------------------|
-----------------------------------------|
-14-12-1415-17171919212123---------------|
xxxxxxxxxxxxxxxxxxxxxxxxxxxxxxxxxxxxxxxxx
-12-10-1213-15151717191921---------------|
-----------------------------------------|
Comments