Hidden In Plain View - Ashes Ashes Chords & Tabs

 

Ashes Ashes Chords & Tabs

Hidden In Plain View Chords & Tabs

Version: 1 Type: Tab 0 ratings
1 star 2 stars 3 stars 4 stars 5 stars
comments

Ashes Ashes Tab

   
Intro
E----------------------------------------------------------------------------|
B-----------10--10--------12-------------------------------------------------|
G-s7--s9-s10--10--10-10s12---------------------------------------------------|
D----------------------------------------------------------------------------|
A----------------------------------------------------------------------------|
D----------------------------------------------------------------------------|


CHORUS
E-0-00-00-00-000-0-00-00-00-000--0-00-00-00-000--0-00-00-03-333--------|
B-3-33-33-33-333-3-33-33-30-000--3-33-33-33-333--3-33-30-03-333--------|
G-2-22-22-22-222-0-00-00-02-222--2-22-22-22-222--0-00-02-20-000--------|
D-0-00-00-00-000-X-XX-XX-X0-000--0-00-00-00-000--X-XX-X0-0X-XXX--------|
A----------------3-33-33-33-333------------------3-33-33-33-333--------|
D----------------------------------------------------------------------|
[ Tab from: http://www.guitartabs.cc/tabs/h/hidden_in_plain_view/ashes_ashes_tab.html ]
Verse 1                          (Guitar 2 do intro with slight alteration)
E-0-00-00-00-00-00-00-000-333------------------------------------------------|
B-3-33-33-33-33-33-33-300-333------------------------------------------------|
G-2-22-20-00-02-22-20-022-000------------------------------------------------|
D-0-00-0X-XX-X0-00-0X-X00-XXX-7777777799999999101010101010101012121212121212-|
A-------3-33-3------3-333-333-55555555777777778 8 8 8 8 8 8 8 10101010101010-|
D----------------------------------------------------------------------------|


E----------------------------------------------------------------------------|
B-----------10--10--------10h12 10--1010-101010------9-1010-101010-1212------|
G-s7--s9-s10--10--10-10s12----------1010-101010-121099-1010-101010 1212------|
D----------------------------------------------------------------------------|
A----------------------------------------------------------------------------|
D----------------------------------------------------------------------------|


One guitar does notes on D, other guitar does octaves.
E----------------------------------------------------------------------------|
B----------------------------------------------------------------------------|
G-777777777777999999999999999910101010101010101212121212121212---------------|
D----------------------------------------------------------------------------|
A-555555555555777777777777777778 8 8 8 8 8 8 81010101010101010---------------|
D-0000000000002222222222222222233333333333333335555555555555555--------------|

ENd

E-------0--------------------------------------------------------------|
B-------0--------------------------------------------------------------|
G-------0---11b12 9b10 9--5555h7-754-----------------------------------|
D-0-0-0----------------------------------------------------------------|
A-0-0-0----------------------------------------------------------------|
D-0-0-0----------------------------------------------------------------|
Comments