Hidden In Plain View - 20 Below Chords & Tabs

 

20 Below Chords & Tabs

Hidden In Plain View Chords & Tabs

Version: 2 Type: Tab 0 ratings
1 star 2 stars 3 stars 4 stars 5 stars
comments

20 Below Tab

Artist-Hidden in Plain View
Song-20 Below
Label-Drive Thru
Tabbed by-Kyle Woodward

Standard
EADGBe

Intro
|----3---3---3---2--3----------------|
|---3---3---3---3--3-----------------|
|--------0---0---2--0----------------|
|----2--(2)--0-----(2)---------------|
|----2---3--(2)-----3----------------|
|----0-------3-----------------------|

|----3----3---3-------------------------|
|--1---3----3---3----1~~~---------------|
|---------------------------------------|
|---------------------------------------|
|---------------------------------------|
|---------------------------------------|

Hard Intro
|----3------3----------------|
|----3------3----------------|
|-----------0----------------|
|----2-----(2)---------------|
|----2------3----------------|
|----0-----------------------|



|----------------------------------|
|----------------------------------|
|-------5-------7---5--------------|
|----2--5---5---7---5--------------|
|----2--3---5---5---3--------------|
|----0------3----------------------|
...P.M

Chorus same as intro
Verse x2
Chorus x2
[ Tab from: http://www.guitartabs.cc/tabs/h/hidden_in_plain_view/20_below_tab_ver_2.html ]
End chorus with
|--------------------------|
|--------------------------|
|--------------------------|
|----2---------------------|
|----2---------------------|
|----0---------------------|

Then
|------------------------------|
|------------------------------|
|----------7---5---7-----------|
|---2--5---7---5---7-----------|
|---2--5---5---3---5-----------|
|---0--3-----------------------|
...P.M.


Now the solo thing

|-----5---5--------2/3/5--3------2/3/5--3------------------|
|---3---3---3-/-5-----------3-/5----------1---3---5--------|
|----------------------------------------------------------|
|----------------------------------------------------------|
|----------------------------------------------------------|
|----------------------------------------------------------|

then at the very end you can just end with..

|--3--3--3--2--3--3-----------3------------------|
|--3--3--3--3--3--3----------3-------------------|
|-----0--0--2--0--0---------0--------------------|
|--2--2--0-----2--2--2-----2---------------------|
|--2--3--2-----3--2--0----2----------------------|
|--0-----3---------------0-----------------------|

Thats it really, any questions or comments email me DriveThru905@hotmail.com
Comments